Song name
# A B C D E F G H I J K L M N O P Q R S T U V W X Y Z

Otherwise - Soldiers tab

(.)- palm mute

E------------------|
B------------------|
G------------------|(with keyboard)
D-----3----5-------|
A-0---1----3---0---|
D-0------------0---|


E------------|
B------------|
G------------|
D-15-14-10---|
A------------|
D------------|


E-------------------------------------------------|
B-------------------------------------------------|
G-------------------------------------------------|
A-------1-1---3-3-----3-3----------------15-14-10-|
E--0-0--3-3---5-5-----5-5---0-0---0-0-0-----------|
D--0-0----------------------0-0---0-0-0-----------|


E-----------------------------------15-12--------------------15-12------------|
B---------------------------------12------14-12------------12------14-12------|
G----------------------------12-14--------------14-12-12-14-------------14-12-|
D-12-10-15-14--12-10-15-14----------------------------------------------------|
A-----------------------------------------------------------------------------|
D-----------------------------------------------------------------------------|

E-----------------------------|
B-----------------------------|
G----14-12--------------------| (The ending of the repeat of solo)
D---------14---15-14-15-14-12-|
A-----------------------------| (you can use hammer on's if you want)
D-----------------------------|


E-------------------------------------------|
B-------------------------------------------|
G-------------------------------------------|
D-15-14-10------12----14----15----17--------|
A-------------------------------------------|
D-------------------------------------------|




------------------------------------------------------------------------------|
------------------------------------------------------------------------------|
-----------------------3-333-3-333-3-333-3-3--5-555-5-555-5-555-5-5-----------|
-----------------------1-111-1-111-1-111-1-1--3-333-3-333-3-333-3-3--15-14-10-|
-0-000-0-000-0-000-0-0--------------------------------------------------------|
-0-000-0-000-0-000-0-0--------------------------------------------------------|
   ...   ...   ...       ...   ...   ...        ...   ...   ...



E-----------------------------------15-12--------------------15-12------------|
B---------------------------------12------14-12------------12------14-12------|
G----------------------------12-14--------------14-12-12-14-------------14-12-|
D-12-10-15-14--12-10-15-14----------------------------------------------------|
A-----------------------------------------------------------------------------|
D-----------------------------------------------------------------------------|


E-----------------------------------------------------|
B-----------------------------------------------------|
G-----------------------------------------------------|
D-12-10-15-14--12-10-15-14----------------------------|
A---------------------------0-3-5-2-3-5-3-5-7-10-0----|
D---------------------------0-3-5-2-3-5-3-5-7-10-0----|
Tap to rate this tab
# A B C D E F G H I J K L M N O P Q R S T U V W X Y Z