Song name
# A B C D E F G H I J K L M N O P Q R S T U V W X Y Z

Otis Taylor - Nasty Letter tab

Standard Tuning


E/------------------------------------|
B/------------------------------------|
G/------------------------------------|
D/---7-5-3-5--7-5-3-5-10-7-5-3-5------|
A/-----------3------------------3-----|
E/------------------------------------|


E/-----------------------------------|
B/-----------------------------------|
G/-----------------------------------|
D/--------3--------------------------|
A/--0-3-5---5-3-5--------------------|
E/-----------------------------------|


Repeat this twice then it gets really fast and i know some variations of how to play it 
its to fast to tab out.

Tabbed by jesse woolley

dreams_of_fire15@hotmail.com
Tap to rate this tab
# A B C D E F G H I J K L M N O P Q R S T U V W X Y Z