Song name
# A B C D E F G H I J K L M N O P Q R S T U V W X Y Z

Ottmar Liebert - Isla Del Sol tab

[NOTE:This song is actually incomplete but i will be editing until i finish it.

e|10-10-9-9-7-7-------7---|10-10-9-9-7-12-10-9-10-7|
B|--------------10-10---10|------------------------|
G|------------------------|------------------------|
D|------------------------|------------------------|
A|------------------------|------------------------|
E|------------------------|------------------------|

e|10-10-9-9-7-7-------7---|10-10-10-9-9-7-12-------|
B|--------------10-10---10|------------------------|
G|------------------------|------------------------|
D|------------------------|------------------------|
A|------------------------|------------------------|
E|------------------------|------------------------|

e|---------------|--------------------|-----------------|
B|------7-8-7----|------7-8-10-8-7---7|------7-8-7-8/12-|
G|6-7-9-------6-7|6-7-9------------9--|6-7-9------------|
D|---------------|--------------------|-----------------|
A|---------------|--------------------|-----------------|
E|---------------|--------------------|-----------------|

e|------------------|---------------------|
B|10-7-8-10-8-7----7|------7-8-7----------|
G|--------------10--|6-7-9-------9-7-6---6|
D|------------------|------------------9--|
A|------------------|---------------------|
E|------------------|---------------------|
Tap to rate this tab
# A B C D E F G H I J K L M N O P Q R S T U V W X Y Z