Song name
# A B C D E F G H I J K L M N O P Q R S T U V W X Y Z

Our Lady Peace - Shaking tab

Help us improve GuitareTab! Take a short survey!
By: David Harrison (blaze@interlog.com)
Song: "Shaking" by "Our Lady Peace"
Album: "Clumsy"(1997)


[Riff 1]
E|-------------------------------------------------------------|
B|---8---8---8---8-------------------8---8---8---8-------------|
G|-------------------8---8---8---8-------------------8~~~\\\---|
D|-7-------------------------------7---------------------------|
A|-----------------8---8---------------------------8-----------|
E|-------------------------------------------------------------|


[Riff 2]
E|-------------------------------------------------------------|
B|---8---8---8---8-------------------8---8---8---8-------------|
G|-------------------8---8---8---8-------------------7~~~\\\---|
D|-7-------------------------------7---------------------------|
A|-----------------8---8---------------------------7-----------|
E|-------------------------------------------------------------|


[Riff 3]
************************************************************
* This riff has the same idea as the riffs above only with *
* different chords. Pick each string seperately. Listen to *
* the song and you understand how to play it.              *
************************************************************
E|-----------------------------|
B|-----8-----------6-----------|
G|-----------8-----------7-----|
D|-----7-----------5-----------|
A|-----------8-----------7-----|
E|-----------------------------|


[Riff 4]
E|----------------------------------------------------------|
B|----------------------------------------------------------|
G|-9-9/101010--10/12--12121212---9-9/1010--10\7-7---7---7-7-|
D|----------------------------------------------------------|
A|-7-7/-8-8-8---8/10--10101010---7-7/-8-8---8\5-5---5---5-5-|
E|----------------------------------------------------------|

E|----------------------------------------------------------|
B|----------------------------------------------------------|
G|-9-9/10101010---9-9/10101010---9-9/1010--12121212-5-5-5-5-|
D|--------------------------------------------------5-5-5-5-|
A|-7-7/-8-8-8-8---7-7/-8-8-8-8---7-7/-8-8--10101010-3-3-3-3-|
E|----------------------------------------------------------|


[Riff 5]
E|-------------------------------------------------------------------|
B|-------------------------------------------------------------------|
G|-------------------------------------------------------------------|
D|-7-7-7-7-3-3-3-5---5-5-5---2-2-2---7-7-7-7-3-3-3-5---5-5-5---2-2-2-|
A|-7-7-7-7-3-3-3-5---5-5-5---2-2-2---7-7-7-7-3-3-3-5---5-5-5---2-2-2-|
E|-5-5-5-5-1-1-1-3---3-3-3---0-0-0---5-5-5-5-1-1-1-3---3-3-3---0-0-0-|

E|-------------------------------------------------------------------|
B|-------------------------------------------------------------------|
G|-------------------------------------------------------------------|
D|-7-7-7-3-3-3-5-5-5-5-5-5-2---2-----7---7---3-3-3-5---5-5-5---2-2-2-|
A|-7-7-7-3-3-3-5-5-5-5-5-5-2---2-----7---7---3-3-3-5---5-5-5---2-2-2-|
E|-5-5-5-1-1-1-3-3-3-3-3-3-0---0-----5---5---1-1-1-3---3-3-3---0-0-0-|

End 1:
E|---------------------------------|
B|---------------------------------|
G|---------------------------------|
D|-7---7---3-3-3-5---5-5-5-5-5-5-5-|
A|-7---7---3-3-3-5---5-5-5-5-5-5-5-|
E|-5---5---1-1-1-3---3-3-3-3-3-3-3-|

End 2:
E|---------------------------------|
B|---------------------------------|
G|---------------------------------|
D|-7---7---3-3-3-2---2-2-2-2-2-2-2-|
A|-7---7---3-3-3-2---2-2-2-2-2-2-2-|
E|-5---5---1-1-1-0---0-0-0-0-0-0-0-|


[Riff 6]
E|-----------------------------------|    |----------------------------|
B|-----------------------------------|    |----------------------------|
G|-12-12h13-12h13-12-12-10-7---------| 3x |-12-12h13-12h13-12-12-12-12-|
D|-----------------------------------|Then|----------------------------|
A|-----------------------------------|    |----------------------------|
E|-----------------------------------|    |----------------------------|


[Riff 7]
**********************************
* These are just the chords, you *
* get to figure out the picking. *
**********************************
E|-----------8-----7-----10-----|
B|-----8------------------------|
G|-----------7-----7-----12-----|
D|-----7------------------------|
A|------------------------------|
E|------------------------------|


[Riff 8]
E|---------------------------------|
B|---------------------------------|
G|---------------------------------|
D|-7-7-7-7-3-3-3-5---5-5-5---2-2-2-|
A|-7-7-7-7-3-3-3-5---5-5-5---2-2-2-|
E|-5-5-5-5-1-1-1-3---3-3-3---0-0-0-|

That should be enough to get you started. Listen to the song to know when
to play each riff.........it should be pretty apparent. If you have any 
questions, comment, corrections, or additions feel free to e-mail me.
Related for Shaking tab