Song name
# A B C D E F G H I J K L M N O P Q R S T U V W X Y Z

Our Last Night - Scared Of Change tab

-------------------------------------------------------------------------------
                             Scared of Change - Our Last Night
-------------------------------------------------------------------------------
Tabbed by:Adam Guion
E-mail: AdamGuion@Gmail.com

Started the rough draft over Thanksgiving and should be able to finish it up over Xmas 
Break. For now I figured everyone wouldn't mind looking at this much. Try to fill in the 
blanks if you can and let me know! Cheers.
Tuning: Drop C#

D#|---------------------------------------------------------------------------|
A#|---------------------------------------------------------------------------|
F#|-------4-------------------------------------------------------------------|
C#|-4-----4-X4----0------2----------------------------------------------------|
G#|-4-X28-2-------0-X29--2-X3-------------------------------------------------|
C#|-4-------------0------2----------------------------------------------------|


D#|---------------------------------------------------------------------------|
A#|---------12p10----10p9----9p7-----------12p10----10p9---9h7----------------|
F#|-----7h9-----------------------------7h9---------------------------7h9-----|
C#|--7h9----------7h9-----7h9----7h9h7h9---------7h9----7h9----7h9h7h9--------|
G#|---------------------------------------------------------------------------|
C#|---------------------------------------------------------------------------|

D#|---------------------------------------------------------------------------|
A#|-7p5----5-----------------------7p5-----5----------------------------------|
F#|----------7-----7p6---------6h7-----------7-----7p6---------6h7------------|
C#|----5h7-----5h7-----5h7h5h7---------5h7-----5h7-----5h7h5h7----------------|
G#|---------------------------------------------------------------------------|
C#|---------------------------------------------------------------------------|

Pre-Chorus
D#|---------------------------------------------------------------------------|
A#|------10p9h10p9----------------Repeat X amount of times--------------------|
F#|-11h13----------11h13------------------------------------------------------|
C#|---------------------------------------------------------------------------|
G#|---------------------------------------------------------------------------|
C#|---------------------------------------------------------------------------|

Chorus
D#|---------------------------------------------------------------------------|
A#|---------------------------------------------------------------------------|
F#|-------4----------0--------------------------------------------------------|
C#|-4-----4-X8-0-----4-X4-2---------------------------------------------------| X2
G#|-4-X8--2----0-X11------2---------------------------------------------------|
C#|-4----------0----------2---------------------------------------------------|

D#|------------------------------------------------------------------------------------|
A#|------------------------------------------------------------------------------------|
F#|-11--14--18----9--------------------------------------------------------------------|
C#|-x---x---x-----x--------------------------------------------------------------------|
G#|-9---12--16----7--------------------------------------------------------------------|
C#|------------------------------------------------------------------------------------|

Repeat Intro
Repeat Pre-Chorus


D#|---------------------------------------------------------------------------|
A#|---------------------------------------------------------------------------|
F#|---------------------------------------------------------------------------|
C#|-4--------7-------9--------------------------------------------------------|
G#|-4-X32----5-X24---7-X8-----------------------------------------------------|
C#|-4-------------------------------------------------------------------------|

Repeat Chorus

Fancy Chords
D#|---------------------------------------------------------------------------|
A#|---------------------------------------------------------------------------|
F#|---------------------------------------------------------------------------|
C#|---------------------------------------------------------------------------|
G#|---------------------------------------------------------------------------|
C#|---------------------------------------------------------------------------|

Bridge

D#|---------------------------------------------------------------------------|
A#|---------------------------------------------------------------------------|
F#|-4-------------------------------------------------------------------------|
C#|-4---4----2----------------0-----------------------------------------------|
G#|-2---4----2----------------0-----------------------------------------------|
C#|-----4----2----------------0-----------------------------------------------|

tremelo pick these v
D#|---------------------------------------------------------------------------|
A#|-7-9-10-12-14-10--7-9-10-12-14-10--7-9-10-12-14-7-9-10-14-7-9-10-14--------|
F#|---------------------------------------------------------------------------|
C#|---------------------------------------------------------------------------|
G#|---------------------------------------------------------------------------|
C#|---------------------------------------------------------------------------|

Chorus

D#|-------------------------------------------------------------------------------------|
A#|-------------------------------------------------------------------------------------|
F#|--666666-----------------------------------------------------------------------------|
C#|--xxxxxx--2---4----------------------------------------------------------------------|
G#|--444444--2---4----------------------------------------------------------------------|
C#|----------2---4----------------------------------------------------------------------|
Tap to rate this tab
# A B C D E F G H I J K L M N O P Q R S T U V W X Y Z