Song name
# A B C D E F G H I J K L M N O P Q R S T U V W X Y Z

Overkill - Elimination tab

I have the song on my profile incase you wanna hear or play along to

TAB LEGEND
----------
. - Palm Mute
\  -  Slide Down
/  -  Slide Up
h  -  Hammer On
p  -  Pull Off
^  -  Bend
~  -  Vibrato

|--------------------------------------------------------------------|
|--------------------------------------------------------------------|
|--------------------------------------------------------------------| 
|----------4--------3--------4--------5-----4-------------4--------3-| 
|-2--------2--------1--------2--------3-----2----2--------2--------1-|
|-0--0--0-----0--0-----0--0-----0--0-----0-------0--0--0-----0--0----|
     .  .     .  .     .  .     .  .     .          .  .     .  .

|---------------------------|
|---------------------------|
|---------------------------|
|-------4-------------------| 
|-------2--------4--5--4--5-| X2
|-0--0-----0--0--2--3--2--3-|
  .  .     .  .
|--------------------------------------------------|
|--------------------------------------------------|
|-------------------------------------0------------|
|-------------------------------------0------------|
|-2--------2--------2--------2--------0------------|
|-0--------0--------0--------0--------3--------12\-|
 
|--------------------------------------------------------------------|
|--------------------------------------------------------------------|
|--------------------------------------------------------------------| 
|----------4--------3--------4--------5-----4-------------4--------3-| 
|-2--------2--------1--------2--------3-----2----2--------2--------1-|
|-0--0--0-----0--0-----0--0-----0--0-----0-------0--0--0-----0--0----|
     .  .     .  .     .  .     .  .     .          .  .     .  .

|---------------------------|
|---------------------------|
|---------------------------|
|-------4-------------------| X4 
|-------2--------4--5--4--5-|
|-0--0-----0--0--2--3--2--3-|
  .  .     .  .

|------------------------------------------------|
|------------------------------------------------|
|-9--------7--------9--------12--------14--------|
|-9--------7--------9--------12--------14--------|
|-7--------5--------7--------10--------12--------|
|-0-----------------0----------------------------|
 
|--------------------------------------------------------------------|
|--------------------------------------------------------------------|
|--------------------------------------------------------------------| 
|----------4--------3--------4--------5-----4-------------4--------3-| 
|-2--------2--------1--------2--------3-----2----2--------2--------1-|
|-0--0--0-----0--0-----0--0-----0--0-----0-------0--0--0-----0--0----|
     .  .     .  .     .  .     .  .     .          .  .     .  .             

|---------------------------|
|---------------------------|
|---------------------------|
|-------4-------------------| X2 Short Pause when solo is done
|-------2--------4--5--4--5-|
|-0--0-----0--0--2--3--2--3-|
  .  .     .  .
|--------------------------------------------------------------------|
|--------------------------------------------------------------------|
|--------------------------------------------------------------------| 
|----------4--------3--------4--------5-----4-------------4--------3-| 
|-2--------2--------1--------2--------3-----2----2--------2--------1-|
|-0--0--0-----0--0-----0--0-----0--0-----0-------0--0--0-----0--0----|
     .  .     .  .     .  .     .  .     .          .  .     .  .             

|---------------------------|
|---------------------------|
|---------------------------|
|-------4-------------------| X4 
|-------2--------4--5--4--5-|
|-0--0-----0--0--2--3--2--3-|
  .  .     .  .
|------------------------------------------------|
|------------------------------------------------|
|-9--------7--------9--------12--------14--------|
|-9--------7--------9--------12--------14--------| X2
|-7--------5--------7--------10--------12--------|
|-0-----------------0----------------------------|

|---|
|---|
|---|
|-2-|    Whammy Bar all the way down then up slowly =D    
|-2-|
|-0-|

|---------------------------|------------|-------------------|
|---------------------------|------------|-------------------|
|----------5--------7-------|-9----------|-------------------|
|-2--------5--------7-------|-9----------|-7^----------------| 
|-2--------3--------5-------|-7----------|-------------------|
|-0-------------------------|------------|-------------------|
                              ^
Do the bend after the 2nd time you play this                                     

|----------------------------|-----------|-------------------|
|----------------------------|-----------|-------------------|
|----------7--------9--------|-11--------|-------------------|
|----------7--------9--------|-11--------|-7^----------------|
|-4--------5--------7--------|-9---------|-------------------|
|-2--------------------------|-----------|-------------------|
                               ^
Again Do the bend after the 2nd time you play this   

|--------------------------------------------------------------------|
|--------------------------------------------------------------------|
|--------------------------------------------------------------------| 
|----------4--------3--------4--------5-----4-------------4--------3-| 
|-2--------2--------1--------2--------3-----2----2--------2--------1-|
|-0--0--0-----0--0-----0--0-----0--0-----0-------0--0--0-----0--0----|
     .  .     .  .     .  .     .  .     .          .  .     .  .             

|---------------------------|
|---------------------------|
|---------------------------|
|-------4-------------------| X4 This goes over the solo
|-------2--------4--5--4--5-|
|-0--0-----0--0--2--3--2--3-|                                    
  .  .     .  .                                               

|-------------------------------------------------------------------------|
|-------------------------------------------------------------------------|
|----------5--------7--------9-----------------5--------7--------9--------|
|-2--------5--------7--------9--------2--------5--------7--------9--------|
|-2--------3--------5--------7--------2--------3--------5--------7--------|
|-0-----------------------------------0-----------------------------------|
 
|----------------------------------------------------------|
|----------------------------------------------------------|
|--------------------6/7----------------7/9----------------|
|--------------------6/7----------------7/9----------------|
|---4----------------4/5-55555555555555-5/7-77777777777777-|
|-0h2-22222222222222---------------------------------------|
 Continued
|---------------------|
|---------------------|
|-9/11----------------|
|-9/11----------------| X2 This goes over the solo
|-7/9--99999999999999-|
|---------------------|
                                               
|--------------------------------------------------------------------|
|--------------------------------------------------------------------|
|--------------------------------------------------------------------| 
|----------4--------3--------4--------5-----4-------------4--------3-| 
|-2--------2--------1--------2--------3-----2----2--------2--------1-|
|-0--0--0-----0--0-----0--0-----0--0-----0-------0--0--0-----0--0----|
     .  .     .  .     .  .     .  .     .          .  .     .  .             

|---------------------------|
|---------------------------|
|---------------------------|
|-------4-------------------| 
|-------2--------4--5--4--5-| X2
|-0--0-----0--0--2--3--2--3-|
  .  .     .  .

|--------------------------------------------------|
|--------------------------------------------------|
|-------------------------------------0------------|
|-------------------------------------0------------|
|-2--------2--------2--------2--------0------------|
|-0--------0--------0--------0--------3--------12\-|
 
|--------------------------------------------------------------------|
|--------------------------------------------------------------------|
|--------------------------------------------------------------------| 
|----------4--------3--------4--------5-----4-------------4--------3-| 
|-2--------2--------1--------2--------3-----2----2--------2--------1-|
|-0--0--0-----0--0-----0--0-----0--0-----0-------0--0--0-----0--0----|
     .  .     .  .     .  .     .  .     .          .  .     .  .             

|---------------------------|
|---------------------------|
|---------------------------|
|-------4-------------------| X4 
|-------2--------4--5--4--5-|
|-0--0-----0--0--2--3--2--3-|
  .  .     .  .

|------------------------------------------------|
|------------------------------------------------|
|-9--------7--------9--------12--------14--------|
|-9--------7--------9--------12--------14--------|
|-7--------5--------7--------10--------12--------|
|-0-----------------0----------------------------|
 
|--------------------------------------------------------------------|
|--------------------------------------------------------------------|
|--------------------------------------------------------------------| 
|----------4--------3--------4--------5-----4-------------4--------3-| 
|-2--------2--------1--------2--------3-----2----2--------2--------1-|
|-0--0--0-----0--0-----0--0-----0--0-----0-------0--0--0-----0--0----|
     .  .     .  .     .  .     .  .     .          .  .     .  .             

|---------------------------|
|---------------------------|
|---------------------------|
|-------4-------------------| X2 Short Pause when solo is done
|-------2--------4--5--4--5-|
|-0--0-----0--0--2--3--2--3-|
  .  .     .  .

|--------------------------------------------------------------------|
|--------------------------------------------------------------------|
|--------------------------------------------------------------------| 
|----------4--------3--------4--------5-----4-------------4--------3-| 
|-2--------2--------1--------2--------3-----2----2--------2--------1-|
|-0--0--0-----0--0-----0--0-----0--0-----0-------0--0--0-----0--0----|
     .  .     .  .     .  .     .  .     .          .  .     .  .             

|---------------------------|
|---------------------------|
|---------------------------|
|-------4-------------------| X4 
|-------2--------4--5--4--5-|
|-0--0-----0--0--2--3--2--3-|
  .  .     .  .

|------------------------------------------------|
|------------------------------------------------|
|-9--------7--------9--------12--------14--------|
|-9--------7--------9--------12--------14--------| X2
|-7--------5--------7--------10--------12--------|
|-0-----------------0----------------------------|

|------------------------------------------------|
|------------------------------------------------|
|------------------------------------------------|
|------------------------------------------------| X2
|-7^~~~----5^~~~----7^~~~----10^~~~----12^~~~----|
|------------------------------------------------|

|--------------------------------------------------------------------|
|--------------------------------------------------------------------|
|--------------------------------------------------------------------| 
|----------4--------3--------4--------5-----4-------------4--------3-| 
|-2--------2--------1--------2--------3-----2----2--------2--------1-|
|-0--0--0-----0--0-----0--0-----0--0-----0-------0--0--0-----0--0----|
     .  .     .  .     .  .     .  .     .          .  .     .  .             

|---------------------------|
|---------------------------|
|---------------------------|
|-------4-------------------| X2
|-------2--------4--5--4--5-|
|-0--0-----0--0--2--3--2--3-|
  .  .     .  .
Tap to rate this tab
# A B C D E F G H I J K L M N O P Q R S T U V W X Y Z