Song name
# A B C D E F G H I J K L M N O P Q R S T U V W X Y Z

Overlead - Fake tab

Overlead - Fake

verse:
----------------------------------------------------|
----------------------------------------------------|
------7---------7-----------7-----------7-----------| 2 x
----7---7-----7---7-------7---7-------7---7---------|
--5-------------------------------------------------|
------------5-----------6-----------3---------------|

same shapes as above ^ but strum instead!!

chorus:

-------xxxx--------xxxx------------------------------|
-------xxxx--------xxxx------------------------------|
--77---xxxx--------xxxx------------------------------|
--77---xxxx---77---xxxx------------------------------|2 x
--55---xxxx---77---xxxx----555-5-5----888-8-8--------|
--xx---xxxx---55---xxxx----333-3-3----666-6-6--------|

all I know !!

plz do not use these tabs as ur own plz ask permission before u add them 2 another site !!!!
thank u... and enjoy !!!!
Tap to rate this tab
# A B C D E F G H I J K L M N O P Q R S T U V W X Y Z