Guitaretab - guitar tabs
Song name
# A B C D E F G H I J K L M N O P Q R S T U V W X Y Z

Overseer - Doomsday tab

Artist: Overseer
Song: Doomsday
Album: Wreckage
Tuning: Drop D and 1 step down

This is real easy to play. Its got all of the words as well. Note Ive put D5 in brackets 
the words, there is very little guitar in the verses so I did that instead of having 
of tab. Have fun. Iím at mouldysandwich@hotmail.co.uk for comments.

The words above bits of tablature are just go give an idea of where they go.
Its not exact.

Intro:
|--------------------------------------------------|
|--------------------------------------------------|
|--------------------------------------------------| x2
|--2---2------2---2------2---2------7--7--5-5---9--|
|--2---2------2---2------2---2------7--7--5-5---9--|
|--2---2------2---2------2---2------7--7--5-5---9--|
  (D5)
        Beats!     Bass!      Beats!
|--------------------------------------------------|
|--------------------------------------------------|
|--------------------------------------------------| x2
|--2---2------2---2------2---2------7--7--5-5---9--|
|--2---2------2---2------2---2------7--7--5-5---9--|
|--2---2------2---2------2---2------7--7--5-5---9--|

(D5)The sound sinister, administer ways to set the world ablaze
Tracks flamed ,untamed (D5)bass raps unchained
Overseer saw the skies turn grey
Doomsday tidal waves from the US to the UK

(D5)Back against the wall, I stand tall, face the grim
Blow decibels way past known levels
My method of madness is this, sadness, gladness, all emotions evoked
(D5)Thoughts provoked, beats come cloaked and daggered
Torn and tattered, sleep the dreams, dreams get shattered
Witness sound transformed to matter

   Bone, Bone, Bone, Bone, Bone, flesh and plasma
|--------------------------------------------------|
|--------------------------------------------------|
|--------------------------------------------------|
|-----------------------------2--2----2----0--5----|
|-----------------------------2--2----2----0--5----|
|-----------------------------2--2----2----0--5----|

|--------------------------------------------------|
|--------------------------------------------------|
|--------------------------------------------------| x3
|--2--2-----2-----2-----2-----2-----2--2----0--5---|
|--2--2-----2-----2-----2-----2-----2--2----0--5---|
|--2--2-----2-----2-----2-----2-----2--2----0--5---|

    Bone, flesh and plasma.      It's ironic
|--------------------------------------------------|
|--------------------------------------------------|
|--------------------------------------------------|
|--2--2-----2-----2-----2-----2--------------------|
|--2--2-----2-----2-----2-----2--------------------|
|--2--2-----2-----2-----2-----2--------------------|

        Beats!     Bass!      Beats!
|--------------------------------------------------|
|--------------------------------------------------|
|--------------------------------------------------| x2
|--2---2------2---2------2---2------7--7--5-5---9--|
|--2---2------2---2------2---2------7--7--5-5---9--|
|--2---2------2---2------2---2------7--7--5-5---9--|

   Bass raps unchained            Overseer saw the
|--------------------------------------------------|
|--------------------------------------------------|
|--------------------------------------------------|
|--2-------2-------2------2---------7--7--5-5---9--|
|--2-------2-------2------2---------7--7--5-5---9--|
|--2-------2-------2------2---------7--7--5-5---9--|

     skies turn grey          Doomsday tidal waves
|--------------------------------------------------|
|--------------------------------------------------|
|--------------------------------------------------|
|--2-------2-------2------2---------7--7--5-5---9--|
|--2-------2-------2------2---------7--7--5-5---9--|
|--2-------2-------2------2---------7--7--5-5---9--|

   Bass raps unchained            Overseer saw the
|--------------------------------------------------|
|--------------------------------------------------|
|--------------------------------------------------|
|--2-------2-------2------2---------7--7--5-5---9--|
|--2-------2-------2------2---------7--7--5-5---9--|
|--2-------2-------2------2---------7--7--5-5---9--|
[ Tab from: http://www.guitaretab.com/o/overseer/143313.html ]
     skies turn grey          Doomsday tidal waves
|--------------------------------------------------|
|--------------------------------------------------|
|--------------------------------------------------|
|--2-------2-------2------2---------7--7--5-5---9--|
|--2-------2-------2------2---------7--7--5-5---9--|
|--2-------2-------2------2---------7--7--5-5---9--|

(D5 then short silence)
(Theres no guitar in this next bit, just beat)
Attack tracks rap phantasm, kicks and snares hit
Inflict back spasms, necks cracked detached from spines
Vertebras and backs, I paint with language
Place my verse on canvass.

     Sip the spirits,       Lyrics cause wayward shifts
|--------------------------------------------------|
|--------------------------------------------------|
|--------------------------------------------------|
|--5---2----5---2----5---2----7--7--7--7--7---5----|
|--5---2----5---2----5---2----7--7--7--7--7---5----|
|--5---2----5---2----5---2----7--7--7--7--7---5----|

  to crash like the sirens, I stalk concrete jungles
|--------------------------------------------------|
|--------------------------------------------------|
|--------------------------------------------------|
|--5---2----5---2----5---2----7--7--7--7--7---5----|
|--5---2----5---2----5---2----7--7--7--7--7---5----|
|--5---2----5---2----5---2----7--7--7--7--7---5----|

    and prides like lions, Standing top Mount Zion
|--------------------------------------------------|
|--------------------------------------------------|
|--------------------------------------------------|
|--5---2----5---2----5---2----7--7--7--7--7---5----|
|--5---2----5---2----5---2----7--7--7--7--7---5----|
|--5---2----5---2----5---2----7--7--7--7--7---5----|

  Trying to reach heaven without dying
|--------------------------------------------------|
|--------------------------------------------------|
|--------------------------------------------------|
|--5---2----5---2----5---2-------------------------|
|--5---2----5---2----5---2-------------------------|
|--5---2----5---2----5---2-------------------------|

(The next bit is D5 loads, like every word or something - Iím not going to bother 
that)
I'm riding sound waves like Posiden
I clutch tight the trident
Bugles blare anouncing his arrival
Overseer, overseeing
Carpe dium seize the day
Drum track echos twenty thousand leagues away
I fly Concorde cross Atlantic
Beats, bass chords cause panic
Horns forewarn the swarm
Melodies freeze planets
Hemispheres severed
Seas, trees shattered
Birds, bees scattered
Earth knocked off its axis
Forty-five degree slanted
Arcane old spells
Wizadry repells
Lock, stock two barrels and a handful of shells
Rebellions quelled
Oceans swell
Thoughts prevail

   Bass raps unchained            Overseer saw the
|--------------------------------------------------|
|--------------------------------------------------|
|--------------------------------------------------|
|--2-------2-------2------2---------7--7--5-5---9--|
|--2-------2-------2------2---------7--7--5-5---9--|
|--2-------2-------2------2---------7--7--5-5---9--|

     skies turn grey          Doomsday tidal waves
|--------------------------------------------------|
|--------------------------------------------------|
|--------------------------------------------------|
|--2-------2-------2------2---------7--7--5-5---9--|
|--2-------2-------2------2---------7--7--5-5---9--|
|--2-------2-------2------2---------7--7--5-5---9--|

   Bass raps unchained            Overseer saw the
|--------------------------------------------------|
|--------------------------------------------------|
|--------------------------------------------------|
|--2-------2-------2------2---------7--7--5-5---9--|
|--2-------2-------2------2---------7--7--5-5---9--|
|--2-------2-------2------2---------7--7--5-5---9--|

     skies turn grey          Doomsday tidal waves
|--------------------------------------------------|
|--------------------------------------------------|
|--------------------------------------------------|
|--2-------2-------2------2---------7--7--5-5---9--|
|--2-------2-------2------2---------7--7--5-5---9--|
|--2-------2-------2------2---------7--7--5-5---9--|

Then D5

Thatís it! Easy!
Related for Doomsday tab