Song name
# A B C D E F G H I J K L M N O P Q R S T U V W X Y Z

Overtone - Tagapagligtas tab

Tagapagligtas
By:Overtone
Captain Safeguard Theme

Tabbed by: Safeguardian...

Intro:

 |---------------------------------------------------------------------|
 |---------------------------------------------------------------------|
 |---------------------------------------------------------------------|
 |---------------------------------------------------------------------|
 |---------------------------------------------------------------------|
 |-6-6-6-8-8-8-9-9-6-6-6-8-8-8-9-9-6-6-6-8-8-8-9-9-11-11-11-9-9-9-8-8--|

 |-----------------------------------------------------------------------|
 |-----------------------------------------------------------------------|
 |-----------------------------------------------------------------------|
 |-----------------------------------------------------------------------|
 |-----------------------------------------------------------------------|
 |-6-6-6-8-8-8-9-9-6-6-6-8-8-8-9-9-6-6-6-8-8-8-9-9-11-11-11-9-9-9-8-8----|

 -------------------|
 -------------------|
 -------------------|
 -------------------|
 --11-11-11-11-11---|
 -------------------|

Verse(dont know the lyrics,& I never wanna know...):
 |-------------------------------------|
 |-------------------------------------|
 |-------------------------------------|
 |-8888888888888888-6666666666666666---| x4
 |-8888888888888888-6666666666666666---|
 |-6666666666666666-4444444444444444---|


Pre-chorus(i hope it's correct coz i forgot this part already...):
 |-------------------------------------|
 |-------------------------------------|
 |-------------------------------------| x4
 |--8888888888888888-4444444444444444--|
 |--8888888888888888-4444444444444444--|
 |--6666666666666666-2222222222222222--|

Chorus:
 |---------------------------------------------|
 |---------------------------------------------|
 |---------------------------------------------|
 |--8888888888888888-1111111111111111----------|
 |--8888888888888888-1111111111111111----------|
 |--6666666666666666-9999999999999999-9h11(x3)-|


Verse:
 |-------------------------------------|
 |-------------------------------------|
 |-------------------------------------|
 |-8888888888888888-6666666666666666---| x4
 |-8888888888888888-6666666666666666---|
 |-6666666666666666-4444444444444444---|

Pre-chorus:
 |-------------------------------------|
 |-------------------------------------|
 |-------------------------------------| x4
 |--8888888888888888-4444444444444444--|
 |--8888888888888888-4444444444444444--|
 |--6666666666666666-2222222222222222--|
Chorus:
 |---------------------------------------------|
 |---------------------------------------------|
 |---------------------------------------------|
 |--8888888888888888-1111111111111111----------|
 |--8888888888888888-1111111111111111----------|
 |--6666666666666666-9999999999999999-9h11(x3)-|


Bridge:
 Guitar1:(plays solo...)
 |-----------------------------------t14p3h5p3h4p0h6p5h6------------------|
 |-12h15--------t15p5h7p6h7p0---------------------------12h15-------------|
 |------13p12h14-------------13p12h14------------------------13p12h14-----|
 |------------------------------------------------------------------------|x2
 |------------------------------------------------------------------------|
 |------------------------------------------------------------------------|

 Guitar2:(tremolo picking...)
 |-6666668888889999996666668888889999966666888889999911111111119999988888-|
 |------------------------------------------------------------------------|
 |------------------------------------------------------------------------|
 |------------------------------------------------------------------------|
 |------------------------------------------------------------------------|
 |------------------------------------------------------------------------|

then:
 Guitar1:
 |-------------------------------------------------------------------------|
 |-------------------------------------------------------------------------|
 |-------------------------------------------------------------------------|
 |-t16p7h9p8h10p0h8p7h9-7/-t16p7h9p8h10p0h8p7h9-9/-t16p7h9p8h10p0h8p7h9----|
 |----------------------5/----------------------7/-------------------------|
 |----------------------5/----------------------7/-------------------------|

 Guitar2:(tremolo picking...)
 |-6666668888889999996666668888889999966666888889999911111111119999988888-|
 |------------------------------------------------------------------------|
 |------------------------------------------------------------------------|
 |------------------------------------------------------------------------|
 |------------------------------------------------------------------------|
 |------------------------------------------------------------------------|

 Chorus:
 |---------------------------------------------|
 |---------------------------------------------|
 |---------------------------------------------|
 |--8888888888888888-1111111111111111----------|
 |--8888888888888888-1111111111111111----------|
 |--6666666666666666-9999999999999999-9h11(x3)-|

repeat till fade...

That's 98% accurate... I swear...



Tap to rate this tab
 
# A B C D E F G H I J K L M N O P Q R S T U V W X Y Z