Guitaretab - guitar tabs
Song name
# A B C D E F G H I J K L M N O P Q R S T U V W X Y Z

Owen - Femme Fatale tab

This is a Velvet Underground cover.
Standard No Capo

Intro:
e|------3-2-3------------------3-2---------------------|
B|------------3-3--3--3-3----------0--3-3-3-3-3--------|
G|----0---------0--0--0-0----0----------0-0-0-0--------|
D|--------------2--2--2-2---------------2-2-2-2---x2---|
A|--0-----------3--3--3-3--0------------3-3-3-3--------|
E|--3----------------------3---------------------------|
[ Tab from: http://www.guitaretab.com/o/owen/150307.html ]
Verse:
e|------3-2-3------------------3-2---------------------|
B|------------3-3--3--3-3----------0--3-3-3-3-3--------|
G|----0---------0--0--0-0----0----------0-0-0-0--------|
D|--------------2--2--2-2---------------2-2-2-2---x2---|
A|--0-----------3--3--3-3--0------------3-3-3-3--------|
E|--3----------------------3---------------------------|

e|------------3---x-x-x-x-----------|
B|--------1p0-----3-3-3-3--3-3-3-3--|
G|------2---------2-2-2-2--x-x-x-x--|
D|----2-----------0-0-0-0--2-2-2-2--|
A|--0----------------------3-3-3-3--|
E|----------------------------------|

Chorus
e|----------------------------------------------3------------3---5-5-5-3-3|
B|-3-3-3-3--3-3-3-3-3-3-3-3-3-3-3-3---------1------------1-----1-5-5-5-3-3|
G|-0-0-0-0--0-0-0-0-0-0-0-0-0-0-0-0-------2---2--------2---2-----5-5-5-4-4|
D|-0-0-0-0--2-2-2-2-0-0-0-0-2-2-2-2-----2------------3-----------7-7-7-5-5|
A|-2-2-2-3--3-3-3-3-2-2-2-2-3-3-3-3---0------------0-------------7-7-7-5-5|
E|-3-3-3-3----------3-3-3-3--------------------------------------5-5-5-3-3|
Related for Femme Fatale tab
×
Femme Fatale