Song name
# A B C D E F G H I J K L M N O P Q R S T U V W X Y Z

Owen - Places To Go tab

Tuning: DADGAD Capo 3rd

Intro/Verse

|--2-2--2-4--4-4-2-0---0-0-0-0-0-0-0-0-|
|--0-0--0-0--0-0-0-0---0-0-0-0-0-0-0-0-|
|--2-2--2-2--2-2-2-2---0-0-0-0-0-0-0-0-|
|-0-----0-0--0-0-0-0---0-0-0-0-0-0-0-0-|
|-0-----0-0--0-0-0-0---2-2-2-2-2-2-2-2-|
|-0-----0-0--0-0-0-0---0-0-0-0-0-0-0-0-|


Interlude (second time leave off the little fill)

|-0-0-0-0-0-0-0---------------|
|-0-0-0-0-0-0-0---------------|
|-0-0-0-0-0-0-0---------------|
|-0-2-0-2-0-2-0-0h2p0---0-----|
|-2-2-2-2-2-2-2---------2-----|
|-2-2-2-2-2-2-2---------------|

Fill before the solo

|----------------------------------|
|-------------------------------0--|
|-0-----------------------------6--|
|---4---------------4----------0---|
|------5------5h7----5--------0----|
|----------7---------------0-------|

Solo (other guitar plays intro/verse)

|----0--------------------------------------------------------------------------|
|------0----------------------0-------------------------------------------------|
|-6-------0----0----------------------------------------------------------------|
|------------4----4--0----------2-4-----------------------------------0---0-----|
|--------------------------------------0h2-----------0----------0-------4-------|
|------------------------------------------------4h5---0---4h5----0-------------|

|-----------------------------------------------0--|
|---------------------0-------0--------------0-----|
|--------------------------------0---------0-------|
|---------------/4-2----0---------4----4-----------|
|-------0-----------------------------7------------|
|-4h5-----0----------------------------------------|


Bridge

|---------7---------0------------7-7-7-5-4-2-0-----------------------------7-7-7-9-5-4-0---|
|-----7--------0--------0-------0-0-0-0-0-0-0-----------------------0-----0-0-0-0-0-0-0----|
|-7--------------6---------------6-6-6-4-2-0-0-----0------------------------6-6-6-7-4-2-0--|
|---------------------------4-----0-0-0-0-0-0-0-------4------------4--------0-0-0-0-0-0-0--|
|------------------------------------------------------------5----5h7----------------------|
|------------------------------0-------------------------------7--------------0------------|
Tap to rate this tab
# A B C D E F G H I J K L M N O P Q R S T U V W X Y Z