Song name
# A B C D E F G H I J K L M N O P Q R S T U V W X Y Z

Owen - Bad Backs And Hardwood Floors tab

Help us improve GuitareTab! Take a short survey!
Artist: Owen
Song: "Bad Backs and Hardwood Floors"
Tuning: DADGAC# - Capo 4
tabbed by- let pain burn from the pv msg board


Intro/Verse:
C#--------0----------------------------------------------------0------------------------|
A-------2---2---------------------------------------------------0--------------0--------|
G------2------2--1--2------------------------2----1----6----7------------2----1---------|
D-----2----------------2/4-----4/2----------4----2----7-----------4-----4----2----------| 
A----0-----------------0------------4p0----4----2----7------0----------4----2-----------|
D----------------------0-----0------------4----2----7-----------------4----2------------|
3x
C#--------0-------------------------------------------------------0---------------------|
A-------2---2------------------------------------------------------0--------------------|
G------2------2--1--2----------------------------2----1----6----7------------2----4-----|
D-----2----------------2/4-----2p4p2p0----------4----2----7----------4------4----6------| 
A----0-----------------0---------------4p0-----4----2----7------0----------4----7-------|
D----------------------0-----0----------------4----2----7-----------------4----6--------|
1x

Chorus:
C#--------------------------------------------------------------------------------------|
A-------0-0---------0-0----------0------------0-0---------0-0----------0-0--------------|
G------2-1-----------1------------1------------1---------2-1------------1---------------|
D-----2-----2-----2-----2------2-----2------2-----2-----2-----2------2-----2------------| 
A----0-----------2------------4-----4------2-----------0------------2-------------------|
D---------------2------------4------------2------------------------2--------------------|


Verse 2:
C#--------0----------------------------------------------------0------------------------|
A-------2---2------0--------------------------------------------0--------------0--------|
G------2------2--1---------------------------2----1----6----7------------2----1---------|
D-----2----------------2/4-----4/2----------4----2----7-----------4-----4----2----------| 
A----0-----------------0------------4p0----4----2----7------0----------4----2-----------|
D----------------------0-----0------------4----2----7-----------------4----2------------|
2x
C#--------0-------------------------------------------------------0---------------------|
A-------2---2------------------------------------------------------0---------------0----|
G------2------2--1--2----------------------------2----1----6----7------------2----1-1---|
D-----2----------------2/4-----2p4p2p0----------4----2----7----------4------4----2---2--| 
A----0-----------------0---------------4p0-----4----2----7------0----------4----2-------|
D----------------------0-----0----------------4----2----7-----------------4----2--------|


Bridge: (the whole bridge is played 3x)
C#--------0------------0------------0------------0--------------------------------------|
A----------0------------0------------0------------0-------------------------------------|
G-----------4------------4------------4------------4------------------------------------|
D------------4------------4------------4------------4-----------------------------------| 
A---------------------------------------------------------------------------------------|
D----0------------0------------0------------0-------------------------------------------|

C#--------0---------------0---------------0---------------0---------0-------------------|
A--------------0---------------0---------------0-----------2----------------------------|
G-----------6---6-----------6---6-----------6---6---------------------1-----------------|
D------------6---------------6---------------6------------------------------------------| 
A---------------------------------------------------------------------------------------|
D----4---------------4---------------4---------------2---------2------------------------|

C#--------0------------0------------0----------------0----------------------------------|
A----------0------------0---------------0-------------0---------------------------------|
G-----------4------------4------------4----------------4--------------------------------|
D------------4------------4---------------4-------------4-------------------------------| 
A---------------------------------------------------------------------------------------|
D----0------------0------------0----------------0---------------------------------------|

C#--------0---------------0---------------0---------------0-----------------------------|
A--------------0---------------0---------------0-----------2-------0--------------------|
G-----------6---6-----------6---6-----------6---6--------------------1------------------|
D------------6---------------6---------------6------------------------------------------| 
A---------------------------------------------------------------------------------------|
D----4---------------4---------------4---------------2---------2------------------------|


Chorus 2:
C#--------------------------------------------------------------------------------------|
A-------0-0---------0-0----------0------------0-0---------0-0----------0-0--------------|
G------2-1-----------1------------1------------1---------2-1------------1---------------|
D-----2-----2-----2-----2------2-----2------2-----2-----2-----2------2-----2------------| 
A----0-----------2------------4-----4------2-----------0------------2-------------------|
D---------------2------------4------------2------------------------2--------------------|

C#--------------------------------------------------------------------------------------|
A-------0-0---------0-0----------0------------0-0-----------0-0----------0-0------------|
G------2-1-----------1------------1------------1-----------2-1------------1-------------|
D-----2-----2-----2-----2------2-----2------2-----2/4-----2-----2------2-----2----------| 
A----0-----------2------------4-----4------2-------------0------------2-----------------|
D---------------2------------4------------2--------------------------2------------------|


Verse 3:
C#--------0----------------------------------------------------0------------------------|
A-------2---2------0--------------------------------------------0--------------0--------|
G------2------2--1---------------------------2----1----6----7------------2----1---------|
D-----2----------------2/4-----4/2----------4----2----7-----------4-----4----2----------| 
A----0-----------------0------------4p0----4----2----7------0----------4----2-----------|
D----------------------0-----0------------4----2----7-----------------4----2------------|
2x

End:
C#--------0-------------------------------------------------------0---------------------|
A-------2---2------------------------------------------------------0---------------0----|
G------2------2--1--2----------------------------2----1----6----7------------2----1-----|
D-----2----------------2/4-----2p4p2p0----------4----2----7----------4------4----2------| 
A----0-----------------0---------------4p0-----4----2----7------0----------4----2-------|
D----------------------0-----0----------------4----2----7-----------------4----2--------|


Bad backs and hardwood floors. I'm so sick of waking up sore, and not knowing where i am.
And this was alot more fun, when the music meant something to someone and i didn't have a
girlfriend. Somehow, i'm getting out. The same way the earth moves around the sun. I
won't stray too far, or be gone too long. Windows and doorways. I don't know which way
to leave this room. Cause i'm afraid of heights. But i'm more afraid of you tonight,
while i'm in this mood. Somehow, i'm getting out. Deadbeats and dead friends. My god,
when will it end. It's been a bad summer.
Related for Bad Backs And Hardwood Floors tab