Song name
# A B C D E F G H I J K L M N O P Q R S T U V W X Y Z

Ozma - Continental Drift tab

There you go.

Eb :----------------|----------------|----------------|----------------|
Bb :----------------|----------------|----------------|----------------|
Gb :----------------|----------------|----------------|----------------|
Db :5-5-5-5-5-5-5-5-|4-4-4-4-4-4-4-4-|3-3-3-3-3-3-3-3-|4-4-4-4-4-4-4-4-|
Ab :3-3-3-3-3-3-3-3-|3-3-3-3-3-3-3-3-|3-3-3-3-3-3-3-3-|3-3-3-3-3-3-3-3-|
Eb :3-3-3-3-3-3-3-3-|2-2-2-2-2-2-2-2-|1-1-1-1-1-1-1-1-|2-2-2-2-2-2-2-2-|

Eb :----------------|----------------|----------------|----------------|
Bb :----------------|----------------|----------------|----------------|
Gb :----------------|----------------|----------------|----------------|
Db :5-5-5-5-5-5-5-5-|4-4-4-4-4-4-4-4-|3-3-3-3-3-3-3-3-|4-4-4-4-4-4-4-4-|
Ab :3-3-3-3-3-3-3-3-|3-3-3-3-3-3-3-3-|3-3-3-3-3-3-3-3-|3-3-3-3-3-3-3-3-|
Eb :3-3-3-3-3-3-3-3-|2-2-2-2-2-2-2-2-|1-1-1-1-1-1-1-1-|2-2-2-2-2-2-2-2-|

Eb :----------------|----------------|----------------|----------------|
Bb :----------------|----------------|----------------|----------------|
Gb :----------------|----------------|----------------|----------------|
Db :5-5-5-5-5-5-5-5-|4-4-4-4-4-4-4-4-|3-3-3-3-3-3-3-3-|4-4-4-4-4-4-4-4-|
Ab :3-3-3-3-3-3-3-3-|3-3-3-3-3-3-3-3-|3-3-3-3-3-3-3-3-|3-3-3-3-3-3-3-3-|
Eb :3-3-3-3-3-3-3-3-|2-2-2-2-2-2-2-2-|1-1-1-1-1-1-1-1-|2-2-2-2-2-2-2-2-|

Eb :----------------|----------------|----------------|----------------|
Bb :----------------|----------------|----------------|----------------|
Gb :----------------|----------------|----------------|----------------|
Db :5-5-5-5-5-5-5-5-|4-4-4-4-4-4-4-4-|3-3-3-3-3-3-3-3-|4-4-4-4-4-4-4-4-|
Ab :3-3-3-3-3-3-3-3-|3-3-3-3-3-3-3-3-|3-3-3-3-3-3-3-3-|3-3-3-3-3-3-3-3-|
Eb :3-3-3-3-3-3-3-3-|2-2-2-2-2-2-2-2-|1-1-1-1-1-1-1-1-|2-2-2-2-2-2-2-2-|

Eb :----------------|----------------|----------------|----------------|
Bb :----------------|----------------|----------------|----------------|
Gb :----------------|----------------|----------------|----------------|
Db :5-5-5-5-5-5-5-5-|4-4-4-4-4-4-4-4-|3-3-3-3-3-3-3-3-|4-4-4-4-4-4-4-4-|
Ab :3-3-3-3-3-3-3-3-|3-3-3-3-3-3-3-3-|3-3-3-3-3-3-3-3-|3-3-3-3-3-3-3-3-|
Eb :3-3-3-3-3-3-3-3-|2-2-2-2-2-2-2-2-|1-1-1-1-1-1-1-1-|2-2-2-2-2-2-2-2-|

Eb :----------------|----------------|----------------|----------------|
Bb :----------------|----------------|----------------|----------------|
Gb :----------------|----------------|----------------|----------------|
Db :5-5-5-5-5-5-5-5-|4-4-4-4-4-4-4-4-|3-3-3-3-3-3-3-3-|4-4-4-4-4-4-4-4-|
Ab :3-3-3-3-3-3-3-3-|3-3-3-3-3-3-3-3-|3-3-3-3-3-3-3-3-|3-3-3-3-3-3-3-3-|
Eb :3-3-3-3-3-3-3-3-|2-2-2-2-2-2-2-2-|1-1-1-1-1-1-1-1-|2-2-2-2-2-2-2-2-|

Eb :----------------|----------------|----------------|----------------|
Bb :----------------|----------------|----------------|----------------|
Gb :----------------|----------------|----------------|----------------|
Db :5-5-5-5-5-5-5-5-|4-4-4-4-4-4-4-4-|3-3-3-3-3-3-3-3-|4-4-4-4-4-4-4-4-|
Ab :3-3-3-3-3-3-3-3-|3-3-3-3-3-3-3-3-|3-3-3-3-3-3-3-3-|3-3-3-3-3-3-3-3-|
Eb :3-3-3-3-3-3-3-3-|2-2-2-2-2-2-2-2-|1-1-1-1-1-1-1-1-|2-2-2-2-2-2-2-2-|

Eb :----------------|----------------|----------------|----------------|
Bb :----------------|----------------|----------------|----------------|
Gb :----------------|----------------|----------------|----------------|
Db :5-5-5-5-5-5-5-5-|4-4-4-4-4-4-4-4-|3-3-3-3-3-3-3-3-|8---------------|
Ab :3-3-3-3-3-3-3-3-|3-3-3-3-3-3-3-3-|3-3-3-3-3-3-3-3-|8---------------|
Eb :3-3-3-3-3-3-3-3-|2-2-2-2-2-2-2-2-|1-1-1-1-1-1-1-1-|6---------------|

Eb :7-----5---------|5-----3---------|7-----5---------|7---------------|
Bb :5-----7---------|5-----5---------|5-----7---------|8---------------|
Gb :5-----7---------|4-----4---------|5-----7---------|7---------------|
Db :----------------|----------------|----------------|----------------|
Ab :----------------|----------------|----------------|----------------|
Eb :----------------|----------------|----------------|----------------|

Eb :7-----5---------|5-----4---------|3---------------|2---------------|
Bb :5-----7---------|5-----5---------|5---------------|3---------------|
Gb :5-----7---------|4-----4---------|5---------------|2---------------|
Db :----------------|----------------|----------------|----------------|
Ab :----------------|----------------|----------------|----------------|
Eb :----------------|----------------|----------------|----------------|

Eb :----------------|----------------|----------------|----------------|
Bb :----------------|----------------|----------------|----------------|
Gb :----------------|----------------|----------------|----------------|
Db :5-5-5-5-5-5-5-5-|4-4-4-4-4-4-4-4-|3-3-3-3-3-3-3-3-|4-4-4-4-4-4-4-4-|
Ab :3-3-3-3-3-3-3-3-|3-3-3-3-3-3-3-3-|3-3-3-3-3-3-3-3-|3-3-3-3-3-3-3-3-|
Eb :3-3-3-3-3-3-3-3-|2-2-2-2-2-2-2-2-|1-1-1-1-1-1-1-1-|2-2-2-2-2-2-2-2-|

Eb :----------------|----------------|----------------|----------------|
Bb :----------------|----------------|----------------|----------------|
Gb :----------------|----------------|----------------|----------------|
Db :5-5-5-5-5-5-5-5-|4-4-4-4-4-4-4-4-|3-3-3-3-3-3-3-3-|4-4-4-4-4-4-4-4-|
Ab :3-3-3-3-3-3-3-3-|3-3-3-3-3-3-3-3-|3-3-3-3-3-3-3-3-|3-3-3-3-3-3-3-3-|
Eb :3-3-3-3-3-3-3-3-|2-2-2-2-2-2-2-2-|1-1-1-1-1-1-1-1-|2-2-2-2-2-2-2-2-|

Eb :----------------|----------------|----------------|----------------|
Bb :----------------|----------------|----------------|----------------|
Gb :----------------|----------------|----------------|----------------|
Db :5-5-5-5-5-5-5-5-|4-4-4-4-4-4-4-4-|3-3-3-3-3-3-3-3-|4-4-4-4-4-4-4-4-|
Ab :3-3-3-3-3-3-3-3-|3-3-3-3-3-3-3-3-|3-3-3-3-3-3-3-3-|3-3-3-3-3-3-3-3-|
Eb :3-3-3-3-3-3-3-3-|2-2-2-2-2-2-2-2-|1-1-1-1-1-1-1-1-|2-2-2-2-2-2-2-2-|

Eb :----------------|----------------|----------------|----------------|
Bb :----------------|----------------|----------------|----------------|
Gb :----------------|----------------|----------------|----------------|
Db :5-5-5-5-5-5-5-5-|4-4-4-4-4-4-4-4-|3-3-3-3-3-3-3-3-|4-4-4-4-4-4-4-4-|
Ab :3-3-3-3-3-3-3-3-|3-3-3-3-3-3-3-3-|3-3-3-3-3-3-3-3-|3-3-3-3-3-3-3-3-|
Eb :3-3-3-3-3-3-3-3-|2-2-2-2-2-2-2-2-|1-1-1-1-1-1-1-1-|2-2-2-2-2-2-2-2-|

Eb :----------------|----------------|----------------|----------------|
Bb :----------------|----------------|----------------|----------------|
Gb :----------------|----------------|----------------|----------------|
Db :5-5-5-5-5-5-5-5-|4-4-4-4-4-4-4-4-|3-3-3-3-3-3-3-3-|4-4-4-4-4-4-4-4-|
Ab :3-3-3-3-3-3-3-3-|3-3-3-3-3-3-3-3-|3-3-3-3-3-3-3-3-|3-3-3-3-3-3-3-3-|
Eb :3-3-3-3-3-3-3-3-|2-2-2-2-2-2-2-2-|1-1-1-1-1-1-1-1-|2-2-2-2-2-2-2-2-|

Eb :----------------|----------------|----------------|----------------|
Bb :----------------|----------------|----------------|----------------|
Gb :----------------|----------------|----------------|----------------|
Db :5-5-5-5-5-5-5-5-|4-4-4-4-4-4-4-4-|3-3-3-3-3-3-3-3-|8---------------|
Ab :3-3-3-3-3-3-3-3-|3-3-3-3-3-3-3-3-|3-3-3-3-3-3-3-3-|8---------------|
Eb :3-3-3-3-3-3-3-3-|2-2-2-2-2-2-2-2-|1-1-1-1-1-1-1-1-|6---------------|

Eb :7-----5---------|5-----3---------|7-----5---------|7---------------|
Bb :5-----7---------|5-----5---------|5-----7---------|8---------------|
Gb :5-----7---------|4-----4---------|5-----7---------|7---------------|
Db :----------------|----------------|----------------|----------------|
Ab :----------------|----------------|----------------|----------------|
Eb :----------------|----------------|----------------|----------------|

Eb :7-----5---------|5-----4---------|3---------------|2---------------|
Bb :5-----7---------|5-----5---------|5---------------|3---------------|
Gb :5-----7---------|4-----4---------|5---------------|2---------------|
Db :----------------|----------------|----------------|----------------|
Ab :----------------|----------------|----------------|----------------|
Eb :----------------|----------------|----------------|----------------|

Eb :----------------|----------------|----------------|----------------|
Bb :----------------|----------------|----------------|----------------|
Gb :5-5-5-7-7-7-7-7-|4-4-4-9-9-9-9-9-|5-5-5-7-7-7-7-7-|----------------|
Db :5-5-5-7-7-7-7-7-|4-4-4-9-9-9-9-9-|5-5-5-7-7-7-7-7-|5-5-5-5-5-5-5-5-|
Ab :3-3-3-5-5-5-5-5-|2-2-2-7-7-7-7-7-|3-3-3-5-5-5-5-5-|5-5-5-5-5-5-5-5-|
Eb :----------------|----------------|----------------|3-3-3-3-3-3-3-3-|

Eb :----------------|----------------|----------------|----------------|
Bb :----------------|----------------|----------------|----------------|
Gb :5-5-5-7-7-7-7-7-|4-6-8-9-9-9-9-9-|----------------|7-7-7-7-7-7-7-7-|
Db :5-5-5-7-7-7-7-7-|4-6-8-9-9-9-9-9-|7-7-7-7-7-7-7-7-|7-7-7-7-7-7-7-7-|
Ab :3-3-3-5-5-5-5-5-|2-4-6-7-7-7-7-7-|7-7-7-7-7-7-7-7-|5-5-5-5-5-5-5-5-|
Eb :----------------|----------------|5-5-5-5-5-5-5-5-|----------------|

Eb :----------------|----------------|----------------|----------------|
Bb :----------------|----------------|----------------|----------------|
Gb :5-5-5-7-7-7-7-7-|4-4-4-9-9-9-9-9-|5-5-5-7-7-7-7-7-|----------------|
Db :5-5-5-7-7-7-7-7-|4-4-4-9-9-9-9-9-|5-5-5-7-7-7-7-7-|5-5-5-5-5-5-5-5-|
Ab :3-3-3-5-5-5-5-5-|2-2-2-7-7-7-7-7-|3-3-3-5-5-5-5-5-|5-5-5-5-5-5-5-5-|
Eb :----------------|----------------|----------------|3-3-3-3-3-3-3-3-|

Eb :----------------|----------------|----------------|----------------|
Bb :----------------|----------------|----------------|----------------|
Gb :5-5-5-7-7-7-7-7-|4-6-8-9-9-9-9-9-|----------------|7-7-7-7-7-7-7-7-|
Db :5-5-5-7-7-7-7-7-|4-6-8-9-9-9-9-9-|7-7-7-7-7-7-7-7-|7-7-7-7-7-7-7-7-|
Ab :3-3-3-5-5-5-5-5-|2-4-6-7-7-7-7-7-|7-7-7-7-7-7-7-7-|5-5-5-5-5-5-5-5-|
Eb :----------------|----------------|5-5-5-5-5-5-5-5-|----------------|

Eb :----------------|----------------|----------------|----------------|
Bb :----------------|----------------|----------------|----------------|
Gb :5-5---7---------|4-4-------------|5---5-7-7---7-7-|----------------|
Db :5-5---7---------|4-4---2---------|5---5-7-7---7-7-|5-5-5-5-5-5-5-5-|
Ab :3-3---5---------|2-2---2---------|3---3-5-5---5-5-|5-5-5-5-5-5-5-5-|
Eb :----------------|------0---------|----------------|3-3-3-3-3-3-3-3-|

Eb :----------------|----------------|----------------|----------------|
Bb :----------------|----------------|----------------|----------------|
Gb :5-5---7---------|4-4-------------|----------------|----------------|
Db :5-5---7---------|4-4---2---------|7-7-7-7-7-7-7-7-|7-7-7-7-7-7-7-7-|
Ab :3-3---5---------|2-2---2---------|7-7-7-7-7-7-7-7-|7-7-7-7-7-7-7-7-|
Eb :----------------|------0---------|5-5-5-5-5-5-5-5-|5-5-5-5-5-5-5-5-|

Eb :----------------|----------------|----------------|----------------|
Bb :----------------|----------------|----------------|----------------|
Gb :7-7-7-7-7-7-7-7-|----------------|5---5-5-5---5---|----------------|
Db :7-7-7-7-7-7-7-7-|5-5-5-5-5-5-5-5-|5---5-5-5---5---|7---7-7-7-7---7-|
Ab :5-5-5-5-5-5-5-5-|5-5-5-5-5-5-5-5-|3---3-3-3---3---|7---7-7-7-7---7-|
Eb :----------------|3-3-3-3-3-3-3-3-|----------------|5---5-5-5-5---5-|

Eb :----------------|----------------|----------------|----5---------------|
Bb :----------------|----------------|----------------|--5-----------------|
Gb :----------------|----------------|5-5-x-5-5---*---|5-------------------|
Db :3---3-3-3---3---|5---5-5-5-5-5-5-|5-5-x-5-5---*---|--------------------|
Ab :3---3-3-3---3---|5---5-5-5-5-5-5-|3-3-x-3-3---*---|--------------------|
Eb :1---1-1-1---1---|3---3-3-3-3-3-3-|----------------|--------------------|

Eb :----------------|----------------|----------------|----------------|
Bb :----------------|----------------|----------------|----------------|
Gb :----------------|----------------|----------------|----------------|
Db :3-3-3-3-3-3-3-3-|4-4-4-4-4-4-4-4-|5-5-5-5-5-5-5-5-|4-4-4-4-4-4-4-4-|
Ab :3-3-3-3-3-3-3-3-|3-3-3-3-3-3-3-3-|3-3-3-3-3-3-3-3-|3-3-3-3-3-3-3-3-|
Eb :1-1-1-1-1-1-1-1-|2-2-2-2-2-2-2-2-|3-3-3-3-3-3-3-3-|2-2-2-2-2-2-2-2-|

Eb :----------------|----------------|----------------|----------------|
Bb :----------------|----------------|----------------|----------------|
Gb :----------------|----------------|----------------|----------------|
Db :3-3-3-3-3-3-3-3-|4-4-4-4-4-4-4-4-|5-5-5-5-5-5-5-5-|4-4-4-4-4-4-4-4-|
Ab :3-3-3-3-3-3-3-3-|3-3-3-3-3-3-3-3-|3-3-3-3-3-3-3-3-|3-3-3-3-3-3-3-3-|
Eb :1-1-1-1-1-1-1-1-|2-2-2-2-2-2-2-2-|3-3-3-3-3-3-3-3-|2-2-2-2-2-2-2-2-|

Eb :----------------|----------------|----------------|----------------|
Bb :----------------|----------------|----------------|----------------|
Gb :----------------|----------------|----------------|----------------|
Db :3-3-3-3-3-3-3-3-|4-4-4-4-4-4-4-4-|5-5-5-5-5-5-5-5-|4-4-4-4-4-4-4-4-|
Ab :3-3-3-3-3-3-3-3-|3-3-3-3-3-3-3-3-|3-3-3-3-3-3-3-3-|3-3-3-3-3-3-3-3-|
Eb :1-1-1-1-1-1-1-1-|2-2-2-2-2-2-2-2-|3-3-3-3-3-3-3-3-|2-2-2-2-2-2-2-2-|

Eb :----------------|----------------|----------------|----------------|
Bb :----------------|----------------|----------------|----------------|
Gb :----------------|----------------|----------------|----------------|
Db :3-3-3-3-3-3-3-3-|4-4-4-4-4-4-4-4-|5-5-5-5-5-5-5-5-|4-4-4-4-4-4-4-4-|
Ab :3-3-3-3-3-3-3-3-|3-3-3-3-3-3-3-3-|3-3-3-3-3-3-3-3-|3-3-3-3-3-3-3-3-|
Eb :1-1-1-1-1-1-1-1-|2-2-2-2-2-2-2-2-|3-3-3-3-3-3-3-3-|2-2-2-2-2-2-2-2-|

Eb :----------------|----------------|----------------|----------------|
Bb :----------------|----------------|----------------|----------------|
Gb :----------------|----------------|----------------|----------------|
Db :3-3-3-3-3-3-3-3-|4-4-4-4-4-------|5-5-5-5-5-5-5-5-|4-4-4-4-4-4-4-4-|
Ab :3-3-3-3-3-3-3-3-|3-3-3-3-3-------|3-3-3-3-3-3-3-3-|3-3-3-3-3-3-3-3-|
Eb :1-1-1-1-1-1-1-1-|2-2-2-2-2-------|3-3-3-3-3-3-3-3-|2-2-2-2-2-2-2-2-|

Eb :----------------|----------------|----------------|----------------|
Bb :----------------|----------------|----------------|----------------|
Gb :----------------|----------------|----------------|----------------|
Db :3-3-3-3-3-3-3-3-|4-4-4-4-4-4-4-4-|5-5-5-5-5-5-5-5-|4-4-4-4-4-4-4-4-|
Ab :3-3-3-3-3-3-3-3-|3-3-3-3-3-3-3-3-|3-3-3-3-3-3-3-3-|3-3-3-3-3-3-3-3-|
Eb :1-1-1-1-1-1-1-1-|2-2-2-2-2-2-2-2-|3-3-3-3-3-3-3-3-|2-2-2-2-2-2-2-2-|

Eb :----------------|----------------|
Bb :----------------|----------------|
Gb :----------------|----------------|
Db :3-3-3-3-3-3-3-3-|8---------------|
Ab :3-3-3-3-3-3-3-3-|8---------------|
Eb :1-1-1-1-1-1-1-1-|6---------------|
Tap to rate this tab
 
# A B C D E F G H I J K L M N O P Q R S T U V W X Y Z