Song name
# A B C D E F G H I J K L M N O P Q R S T U V W X Y Z

Ozzy Osbourne - Iron Man tab

----------------------------------------------------------------------------
     Iron Man - Ozzy Osbourne
----------------------------------------------------------------------------
Tabbed by:kota1122
Email:drichards11@yahoo.com

Tuning:Standard

| /  slide up
| \  slide down
| h  hammer-on
| p  pull-off
| ~  vibrato
| +  harmonic
| x  Mute note

for first part 1st fret with half bend and do this 3 times

Intro Riff
|----------------------------------------------------------------|
|----------------------------------------------------------------|
|----------------------------------------------------------------|
|----------------------------------------------------------------|
|---9----12--12\14-14----17/16-17/16-17-12-12\14-14--------------|
|---7----10--10\12-12----15/14-15/14-15-10-10\12-12--------------|

Verse
|----------------------------------------------------------------|
|----------------------------------------------------------------|
|----------------------------------------------------------------|
|----------------------------------------------------------------|
|----------------------------------------------------------------|
|---7----10--10\12-12----15/14-15/14-15-10-10\12-12--------------|


Riff 2
|------------------------------------------------------|-----------------|
|------------------------------------------------------|-----------------|
|------------------------------------------------------|-----------------|
|------------------------------------------------------|-----------------|
|-----5-------------------------5----------------------|-----5-----------|
|-7-7---7-6-5-5-5-0h4-5-5-6-7-7---7-6-5-5-5-0h4-5-5-6--|-7-7---7-6-5-5-5-|

Bridge
|--------------|------------------------------------------------------|
|--------------|------------------------------------------------------|
|--------------|------------------------------------------------------|
|--------------|---------------------7-8-9----------------------7-8-9-|
|-12-------14--|-9--9-------7--7-8-9--------9--9-------7--7-8-9-------|
|-10-------12--|-9--9-------7--7-8-9--------9--9-------7--7-8-9-------|

Solo
|---------------------------------------------|
|---------------------------------------------|
|---------------------------------------------|
|-11-9-------------------11-9-----------------|
|------11-10-9-7--------------11-10-9-7-------|
|----------------7-7/9-9----------------7-7h9-|

|----------------------------------------------------------|
|----------------------------------------------------------|
|----------------------------------9-9---------9-9---------|
|-------------------------9-9-9h11-----11p9--------11p9----|
|-----7h9-9p7----7h9-9/11-------------------11----------11-|
|-7h9---------9h-------------------------------------------|

|--------------9-------------------------------------------|
|-----------/9---12-9-----------------------9-12p9----9----|
|---------------------11-9-9-----------9h11--------11------|
|-9h11-11--------------------11-9-9h11---------------------|
|----------------------------------------------------------|
|----------------------------------------------------------|

|------------------------9--------/14-14-14-14p12----------|
|-12p9----9-12p9----9-12---12-9-9-----------------14h-14---|
|------11--------11----------------------------------------|
|----------------------------------------------------------|
|----------------------------------------------------------|
|----------------------------------------------------------|

|--------9-9-----------------------------------------------|
|-12-14------12p9-----9-12-12p9----------------------------|
|-----------------11h-----------11h-11p9-----9-9-----------|
|----------------------------------------11h-----11p9------|
|-----------------------------------------------------11---|
|----------------------------------------------------------|

|----------------------------------------------------------|
|----------------------------------------------------------|
|------9-9---------------9---------------------------------|
|-9h11-----11p9-----9h11---9-9h11-9h11-9h11-9h11-9h11-11---|
|---------------11h----------------------------------------|
|----------------------------------------------------------|

|----------------------------------------------------------|
|----------------------------------------------------------|
|----------------------------------------------------------|
|-9h11-9h11-9h11-9h11-9h11-11-11-9-----------------11-9----|
|----------------------------------11-10-9-7------------11-|
|--------------------------------------------7-7/9---------|

|--------------|
|--------------|
|--------------|
|--------------|
|-10-9-7-------|
|--------7-7/9-|

Solo 2
e:--------------------------------------------------------------------|
b:--------------------------------------------------------------------|
g:--------------------------------------------------------------------|
d:-------------------4-5-4-5-4h5p4--------------------4-5-4-5-4h5p4---|
a:-7h5-7-5h7p5-7h5-7---------------57h5-7-5h7p5-7h5-7---------------5-|
e:--------------------------------------------------------------------|

e:--------------------------------------------------10-10h12----------|
b:----------------------------------------8---10/12-------------------|
g:-------------7---7-9-9^-9^-9^--7---7h9----9-------------------------|
d:-----5---7/9---9-----------------9----------------------------------|
a:-5/7---7------------------------------------------------------------|
e:--------------------------------------------------------------------|

e:--------------------------------------------------------------------|
b:-----------------------------------------5v----8--------------------|
g:--------------7--7h9-9^-9^-9^-7--7-9-7h9----9v----------------------|
d:-----5-7--7/9-------------------------------------------------------|
a:-5h7----------------------------------------------------------------|
e:--------------------------------------------------------------------|

e:-12^-12^-12^-10---10-----------------------------------------------|
b:----------------X----12-12\10-8/10-8-------------------------------|
g:-------------------------------------9-7---------------------------|
d:-----------------------------------------9\7-5-7h5---7p5-----5-7---|
a:---------------------------------------------------7-----5h7-------|
e:-------------------------------------------------------------------|

e:--------------14^---------------------------------------------------|
b:--------------17^--17^--17^--15--17h15------------------------------|
g:-----7---7-9---------------------------16-16\14--0--10\9--7--7------|
d:-7/9---9------------------------------------------------------------|
a:--------------------------------------------------------------------|
e:--------------------------------------------------------------------|

e:--------------------------------------------------------------------|
b:--------------------------------------------------------------------|
g:-9^-9^-9^-9^-9^--7h9p7---7------------------------------------------|
d:-----------------------9---9\7-5-7--5-7--7^-7^-7^--5----------------|
a:------------------------------------------------------7-------------|
e:--------------------------------------------------------------------|

e:--------------------------------------------------------------------|
b:--------------------------------------------------------------------|
g:-9^-9^--------------------------------------------------------------|
d:-------7/9--9--9\7--7h5--7p5----------------------------------------|
a:------------------------------7--5----------------------------------|
e:--------------------------------------------------------------------|

e:----------------|
b:----------------|
g:----------------|
d:----------------|
a:---7---5--7-----|
e:----------------|


I am Iron Man.

Has he lost his mind?
Can he see or is he blind?
Can he walk at all,
Or if he moves will he fall?

Is he alive or dead?
Has he thoughts within his head?
We'll just pass him there
Why should we even care?

He was turned to steel
In the great magnetic field
When he travelled time
For the future of mankind

Nobody wants him
He just stares at the world
Planning his vengeance
That he will soon unfurl

Now the time is here
For Iron Man to spread fear
Vengeance from the grave
Kills the people he once saved

Nobody wants him
They just turn their heads
Nobody helps him
Now he has his revenge

Heavy boots of lead
Fills his victims full of dread
Running as fast as they can
Iron Man lives again!

This is really a Black Sabbath song but Ozzy has rights to this song as well

Ok now this is the order:
Intro Riff-x2
Verse-x2
Intro Riff-x1
Verse-x2
Riff 2
Intro Riff-x1
Verse-x2
Bridge-x2
Intro Riff-x2
Verse x2
Bridge-x2
Solo
Bridge(2nd half of the Bridge)-2x
Intro Riff-x2
Verse-x2
Riff 2
1st fret with half bend-2x
Solo 2

And that's about it.
Tap to rate this tab
 
# A B C D E F G H I J K L M N O P Q R S T U V W X Y Z