Guitaretab - guitar tabs
Song name
# A B C D E F G H I J K L M N O P Q R S T U V W X Y Z

Pachelbel Johann - Canon In D tab

   F#        E        D        C#     B     A      B       C#
      
   Repeat: 13-21  
   [13]              [14]             [15]         [16]                
e|--------------------------------------------------------------------------.|
B|--------------------------------------------------------------------------.|
G|--------------------------------------------------------------------------.|
D|--16-------14-------12-------11------9-----7------9------11---------------.|
A|--16-------14-------12-------11------9-----7------9------11---------------.|
E|--14-------12-------10-------9-------7-----5------7------9----------------.|



    [21]
e|---------------------------------------------------------------------------|
B|---------------------------------------------------------------------------|
G|-------------------2--4----------------------------------------------------|
D|--16---14----0--4--------5--4--2--5--4--2----------------------------------|
A|--16---14----------------------------------5--4--2--0--2--5--5--4----------|
E|--14---12------------------------------------------------------------------|


SOLO:
   [25]                                        [26]
e|---------------------------------------------------------------------------|
B|---------------------------------------------------------------------------|
G|---------------------------------------------------------------------------|
D|-------------------------------------0--2--4--5--4--0--2--4----------------|
A|--7--4--5--7--4--5--7-------0--2--4--------------------------------0--2--0-|
E|-------------------------------------------------------------2--3----------|




                   [27]                                      [28]
e|---------------------------------------------------------------------------|
B|---------------------------------------------------------------------------|
G|---------------------------------------------------------------------------|
D|------------------------------------------0--------------------------------|
A|-----0--------0------2--0------------------------------0--2-----2--0-------|
E|--3-----2--3------3--------3--2--0--2--0-----0--2--3--------3--------------|

                                     [29]
e|---------------------------------------------------------------------------|
B|---------------------------------------------------------------------------|
G|---------------------------------------------------------------------------|
D|-----------------------------2--4----7--4--5--7--4--5--7-----------0--2--4-|
A|--2--4--5--4--2--0--2--4--5-------------------------------0--2--4----------|
E|---------------------------------------------------------------------------|
[ Tab from: http://www.guitaretab.com/p/pachelbel-johann/14091.html ]
      [30]                                     [31]
e|---------------------------------------------------------------------------|
B|---------------------------------------------------------------------------|
G|---------------------------------------------------------------------------|
D|--5--4--0--2--4------------------------------------------------------------|
A|-----------------------0--2--0-----0--5--4--5--2--5--4--2--0-----0---------|
E|-----------------2--3-----------3-----------------------------3-----3--2---|

                  [32]
e|---------------------------------------------------------------------------|
B|---------------------------------------------------------------------------|
G|---------------------------------------------------------------------------|
D|---------------------------------------0--2-----0--2--4--5-----------------|
A|-----0--2--4--5---2--5--4--5--4--2--4--------4-----------------------------|
E|--3------------------------------------------------------------------------|


Play this twice: 33-41
   [33]              [34]             [35]        [36]
                                            open A, second time
e|---------------------------------------------------------------------------|
B|---------------------------------------------------------------------------|
G|---------------------------------------------------------------------------|
D|--7--7--7--9--7--5--4--4--4--5--4--2--0--0--0------------------------------|
A|-----------------------------------------------0--5--3--2--3--4------------|
E|---------------------------------------------------------------------------|


   [41]              [42]              [43]              [44]
                                        | quarter notes|
e|---------------------------------------------------------------------------|
B|---------------------------------------------------------------------------|
G|----------------------------------------------------------------2----------|
D|--4--4--4--5--4--2--0--0--0--2--0----------------0------0--5--2------------|
A|-----------------------------------4----2-----0----------------------------|
E|-------------------------------------------3-------------------------------|


   [45]        [46]        [47]        [48]                 [49]
e|---------------------------------------------------------------------------|
B|---------------------------------------------------------------------------|
G|--------------------2--2--------------------------------2--2---------------|
D|--0--0--2--2--4--4--------5--5--4--0--0--0--5--2--2--2---------------------|
A|---------------------------------------------------------------------------|
E|---------------------------------------------------------------------------|











Related for Canon In D tab
Canon In D chords by Pachelbel Johann