Song name
# A B C D E F G H I J K L M N O P Q R S T U V W X Y Z

Paddy Casey - Promised Land tab

"Promised Land"
by Peter Spillane
 What an excellent song,no tabs available but this works well

e|-x--x-x----x--x--x----x--x-x---x--x-x-|
B|-x--x-x----x--x--x----2--2-2---8--8-8-|
G|-5--5-5---10--10-10---3--3-3---8--8-8-|
D|-6--6-6---11--11-11---3--3-3---8--8-8-|
A|-6--6-6---11--11-11---1--1-1---6--6-6-|
E|-4--4-4---9---9--9----x--x-x---x--x-x-|

e|-x--x-x----x--x--x----x--x-x---x--x-x-|
B|-4--4-4---10--10-10---2--2-2---8--8-8-|
G|-5--5-5---10--10-10---3--3-3---8--8-8-|
D|-5--5-5---10--10-10---3--3-3---8--8-8-|
A|-3--3-3---8---8--8----1--1-1---6--6-6-|
E|-x--x-x---x---x--x----x--x-x---x--x-x-|
Tap to rate this tab
 
# A B C D E F G H I J K L M N O P Q R S T U V W X Y Z