Song name
# A B C D E F G H I J K L M N O P Q R S T U V W X Y Z

Padi - Semua Tak Sama tab

Song    : Semua tak Sama
Album   : Sesuatu yang Tertunda

Note: This tab is the way I play the song, not personnel’s way.
-----------------------------------------------------------------------------------
/  = Slide up
\  = Slide down
h  = Hummer on
p  = Pull off
~  = Vibrate
PM = Palm mute
x  = Dead note
’  = Bend (full=2 frets, 1/2=1 fret)
‘  = Release
’‘ = Bend and release
( )= Harmonic

No intro. Directly to the song with some clean guitar.
C Am Em G
Dalam benakku lama tertanam sejuta bayangan dirimu
Redup terasa cahaya hati 
Mengingat apa yang tlah kau berikan 

In the recorded song, cello played to fill this part. Here is the cello tab:
   C               Am       Em          G
E|-----------------------------------------|
G|-----------------------------------------|
B|-----------------------------------------|
D|-----------------------------------------|
A|---3-5-/7~-/8-\7~---/10~-\7~-/10~-\7~----|
E|-3------------------------------------3~-|

C Am Em G
Waktu berjalan lambat mengiring
Dalam titian takdir hidupku
Cukup sudah aku tertahan
Dalam persimpangan masa silamku

Bridge:
Kucoba tuk melawan getir yang terus kukecap
Meresap kedalam relung sukmaku
Kucoba tuk singkirkan aroma nafas tubuhmu
Mengalir mengisi laju darahku

Piyu plays:
   F             C                          Em            F
E|-------------|------------------(5)-(5)-|-------------|---------|
B|-------------|-----------------harmonic-|-------------|---------|
G|-------------|-5-5-5-5-5--x-x-----------|-------------|---------|
D|-3-3-3-3-3---|-5-5-5-5-5--x-x-----------|-2-2-2-2-2---|-3-3-3---|
A|-3-3-3-3-3---|-3-3-3-3-3--x-x-----------|-2-2-2-2-2---|-3-3-3---|
E|-1-1-1-1-1---|--------------------------|-0-0-0-0-0---|-1-1-1---|

   G                 F                C                     Em
E|-----------------|----------------|---------------------|-------------|
B|-----------------|----------------|---------------------|-------------|
G|-----------------|----------------|-5-5-5-5-5-----------|-------------|
D|-5-5-5-5-5-5-5-5-|-3-3-3-3-3--x-x-|-5-5-5-5-5--harmonic-|-2-2-2-2--2--|
A|-5-5-5-5-5-5-5-5-|-3-3-3-3-3--x-x-|-3-3-3-3-3-------(5)-|-2-2-2-2--2--|
E|-3-3-3-3-3-3-3-3-|-1-1-1-1-1--x-x-|-------------(5)-----|-0-0-0-0-(5)-|

   F         G                 C
E|---------------------------|---|
B|---------------------------|---|
G|---------------------------|-5-|
D|-3-3-3-----5-5-5-5-5-5-5-5-|-5-|
A|-3-3-3-----5-5-5-5-5-5-5-5-|-3-|
E|-1-1-1-----3-3-3-3-3-3-3-3-|---|
Ari plays:
   F                   C             Em            F       G
E|-------------------|-------------|-------------|-------------------------|
B|---------------(6)-|-------------|-------------|-------------------------|
G|-------------x-----|-5-5-5-5-5---|-------------|-------------------------|
D|-3-3-3-3-3---------|-5-5-5-5-5---|-2-2-2-2-2---|-3-3-3---5-5-5-5-5-5-5-5-|
A|-3-3-3-3-3---------|-3-3-3-3-3---|-2-2-2-2-2---|-3-3-3---5-5-5-5-5-5-5-5-|
E|-1-1-1-1-1---------|-------------|-0-0-0-0-0---|-1-1-1---3-3-3-3-3-3-3-3-|

   F                   C             Em            F       G                 C
E|-------------------|-------------|-------------|-------------------------|---|
B|-------------------|-------------|-------------|-------------------------|---|
G|-------------------|-------------|-------------|-------------------------|-5-|
D|-3-3-3-3-3---x-3---|-5-5-5-5-5---|-2-2-2-2-2---|-3-3-3---5-5-5-5-5-5-5-5-|-5-|
A|-3-3-3-3-3---x-3---|-3-3-3-3-3---|-2-2-2-2-2---|-3-3-3---5-5-5-5-5-5-5-5-|-3-|
E|-1-1-1-1-1---x-1---|-------------|-0-0-0-0-0---|-1-1-1---3-3-3-3-3-3-3-3-|---|

Refrain.
Semua tak sama, tak pernah sama
Apa yang kukecup, apa yang kusentuh
Sehangat pelukmu, selembut belaimu
Tak ada satu pun yang mampu menjadi sepertimu

Ari play clean rhythm in:
C CMaj7 Am F-G
C Am G Dm F-G

Piyu plays:
   C  CMaj7Am  F                            C                 Am
E|---|---|---|---8---10h12---12---12---10-|-8---8---8---8---|----8----8----8----8-|
B|---|---|---|-8---8-------8----8----8----|-8---8---8---8---|-10---10---10---10---|
G|---|---|---|----------------------------|-----------------|---------------------|
D|---|---|---|----------------------------|-----------------|---------------------|
A|---|---|---|----------------------------|-----------------|---------------------|
E|---|---|---|----------------------------|-----------------|---------------------|

   G                  Dm                          F            G
E|---8---8---8---8-|-----13----13----13----13---|---8---8---8----|
B|-8---8---8---8---|-/15----15----15----15------|-8---8---8------|
G|-----------------|----------------------------|----------------|
D|-----------------|----------------------------|----------------|
A|-----------------|----------------------------|----------------|
E|-----------------|----------------------------|----------------|

C Am Em G
Apalah arti hidupku ini
Memapahku dalam ketiadaan
Segalanya luruh lemah tak bertumpu
Hanya bersandar pada dirimu

Tak bisa, sungguh tak bisa
Mengganti dirimu dengan dirinya

The cello played for one more time in this part.
   C               Am       Em          G
E|-----------------------------------------|
G|-----------------------------------------|
B|-----------------------------------------|
D|-----------------------------------------|
A|---3-5-/7~-/8-\7~---/10~-\7~-/10~-\7~----|
E|-3------------------------------------3~-|

Bridge.
Kucoba tuk melawan getir yang terus kukecap
Meresap kedalam relung sukmaku
Kucoba tuk singkirkan aroma nafas tubuhmu
Mengalir mengisi laju darahku
 
Piyu plays:
   F                   C                      Em          F       G
E|-------------------|----------------------|-----------|-------------------------|
B|-------------------|----------------------|-----------|-------------------------|
G|-------------------|-5-5-5-5-5--x-x---x-x-|-----------|-------------------------|
D|-3-3-3-3-3---x-x-x-|-5-5-5-5-5--x-x---x-x-|-2-2-2-2-2-|-3-3-3---5-5-5-5-5-5-5-5-|
A|-3-3-3-3-3---x-x-x-|-3-3-3-3-3--x—x---x-x-|-2-2-2-2-2-|-3-3-3---5-5-5-5-5-5-5-5-|
E|-1-1-1-1-1---x-x-x-|----------------------|-0-0-0-0-0-|-1-1-1---3-3-3-3-3-3-3-3-|

   F                     C                   Em              F
E|---------------------|-----------------5-|---------------|---------|
B|---------------------|-------------------|---------------|---------|
G|---------------------|-5-5-5-5-5-x-x-----|---------------|---------|
D|-3-3-3-3-3-x-x---x-x-|-5-5-5-5-5-x-x-----|-2-2-2-2-2-x-x-|-3-3-3---|
A|-3-3-3-3-3-x-x---x-x-|-3-3-3-3-3-x-x-----|-2-2-2-2-2-x-x-|-3-3-3---|
E|-1-1-1-1-1-x-x---x-x-|-------------------|-0-0-0-0-0-x-x-|-1-1-1---|

   G                 C
E|-----------------|---|
B|-----------------|---|
G|-----------------|-5-|
D|-5-5-5-5-5-5-5-5-|-5-|
A|-5-5-5-5-5-5-5-5-|-3-|
E|-3-3-3-3-3-3-3-3-|---|

Ari plays:
   F                 C                     Em            F       G
E|-------------(5)-|---------------------|-------------|-------------------------|
B|-----------------|-----------------(5)-|-------------|-------------------------|
G|-----------------|-5-5-5-5-5---(5)-----|-------------|-------------------------|
D|-3-3-3-3-3-------|-5-5-5-5-5-----------|-2-2-2-2-2---|-3-3-3---5-5-5-5-5-5-5-5-|
A|-3-3-3-3-3-------|-3-3-3-3-3-----------|-2-2-2-2-2---|-3-3-3---5-5-5-5-5-5-5-5-|
E|-1-1-1-1-1-------|---------------------|-0-0-0-0-0---|-1-1-1---3-3-3-3-3-3-3-3-|

   F                  C                     Em
E|------------------|---------------------|-------------|
B|------------------|-----------------(5)-|-------------|
G|------------------|-5-5-5-5-5---(5)-----|-------------|
D|-3-3-3-3-3--------|-5-5-5-5-5-----------|-2-2-2-2-2---|
A|-3-3-3-3-3--------|-3-3-3-3-3-----------|-2-2-2-2-2---|
E|-1-1-1-1-1---(1)~-|---------------------|-0-0-0-0-0---|

   F       G                 C
E|-------------------------|---|
B|-------------------------|---|
G|-------------------------|-5-|
D|-3-3-3---5-5-5-5-5-5-5-5-|-5-|
A|-3-3-3---5-5-5-5-5-5-5-5-|-3-|
E|-1-1-1---3-3-3-3-3-3-3-3-|---|

Refrain.
Semua tak sama, tak pernah sama
Apa yang kukecup, apa yang kusentuh
Sehangat pelukmu, selembut belaimu
Tak ada satu pun yang mampu menjadi sepertimu

Ari play clean rhythm in:
C CMaj7 Am F-G
C Am G Dm F-G

Piyu plays:
   C  CMaj7Am  F                            C                 Am
E|---|---|---|---8---10h12---12---12---10-|-8---8---8---8---|----8----8----8----8-|
B|---|---|---|-8---8-------8----8----8----|-8---8---8---8---|-10---10---10---10---|
G|---|---|---|----------------------------|-----------------|---------------------|
D|---|---|---|----------------------------|-----------------|---------------------|
A|---|---|---|----------------------------|-----------------|---------------------|
E|---|---|---|----------------------------|-----------------|---------------------|
   G                  Dm                          F            G
E|---8---8---8---8-|-----13----13----13----13---|---8---8---8----|
B|-8---8---8---8---|-/15----15----15----15------|-8---8---8------|
G|-----------------|----------------------------|----------------|
D|-----------------|----------------------------|----------------|
A|-----------------|----------------------------|----------------|
E|-----------------|----------------------------|----------------|

All stop in C. Yoyo play his drum solo.

Interlude.
Ari plays rhythm:
   F
E|------------------------------------------------------------------|
B|------------------------------------------------------------------|
G|-PM===========================================================----|
D|-3-3-3-3-3-3-3-3-3-3-3-3-3-3-3-3-3-3-3-3-3-3-3-3-3-3-3-3-3-3---3\-|
A|-3-3-3-3-3-3-3-3-3-3-3-3-3-3-3-3-3-3-3-3-3-3-3-3-3-3-3-3-3-3---3\-|
E|-1-1-1-1-1-1-1-1-1-1-1-1-1-1-1-1-1-1-1-1-1-1-1-1-1-1-1-1-1-1-1----|

   C
E|-------------------------------------------------
B|-------------------------------------------------
G|-------------------------------------------------
D|-10-10-10-10-10-10-10-10-10-10-10-10-10-10-10-10-
A|-10-10-10-10-10-10-10-10-10-10-10-10-10-10-10-10-
E|-8--8--8--8--8--8--8--8--8--8--8--8--8--8--8--8--

-------------------------------------------------|
-------------------------------------------------|
-------------------------------------------------|
-10-10-10-10-10-10-10-10-10-10-10-10-10-10---10\-|
-10-10-10-10-10-10-10-10-10-10-10-10-10-10---10\-|
-8--8--8--8--8--8--8--8--8--8--8--8--8--8--8-----|
Ari plays it 2x

Piyu plays this 2x:
   F
E|---------------------------------------------------------|
B|------8-10-12-13-12-10-8----------8-10-12-13-12-10-8-----|
G|----9---------------------------9------------------------|
D|-10--------12-14-12-10-10----10--------12-14-12-10-10----|
A|---------------------------------------------------------|
E|---------------------------------------------------------|

   C
E|-----------------------------------------------------------------------|
B|-------13-------15-------17-15-13---------13-------15-------17-15-13---|
G|-----------------------------------------------------------------------|
D|-12/14----14/15----15/17----15-14---12/14----14/15----15/17----15-14---|
A|-----------------------------------------------------------------------|
E|-----------------------------------------------------------------------|

Interlude 2: Ari and Piyu play this.
   G
E|------------------------------------------------------------------------------
B|------------------------------------------------------------------------------
G|------------------------------------------------------------------------------
D|-5-5-5-5-5-5-5-5-5/7---7-7-7-7-7-7-7/8---8-8-8-8-8-8-8/10---10-10-10-10-10-10-
A|-5-5-5-5-5-5-5-5-5/7---7-7-7-7-7-7-7/8---8-8-8-8-8-8-8/10---10-10-10-10-10-10-
E|-3-3-3-3-3-3-3-3-3/5---5-5-5-5-5-5-5/6---6-6-6-6-6-6-6/8----8--8--8--8--8--8--

--------------------------------------------------------------------
--------------------------------------------------------------------
-7-7-7-7-7-7-7-7-7/9---9-9-9-9-9-9-9/10---10-10-10-10-10-10-10/12---
--------------------------------------------------------------------
-5-5-5-5-5-5-5-5-5/7---7-7-7-7-7-7-7/8----8--8--8--8--8--8--8/10----
--------------------------------------------------------------------
---------------------------|
---------------------------|
10/12---12-12-12-12-12-12/-|
---------------------------|
8/10----10-10-10-10-10-10/-|
---------------------------|

Interlude 3.
Ari plays:
   G       Am      F                 G       Am      F
E|---------------------------------|---------------------------------|
B|---------------------------------|---------------------------------|
G|-------------------------PM=-----|-------------------------PM=-----|
D|-5-x-5---7-x-7---3-x-3---3-3-3---|-5-x-5---7-x-7---3-x-3---3-3-3---|
A|-5-x-5---7-x-7---3-x-3---3-3-3---|-5-x-5---7-x-7---3-x-3---3-3-3---|
E|-3-x-3---5-x-5---1-x-1---1-1-1---|-3-x-3---5-x-5---1-x-1---1-1-1---|

Piyu plays in 3 patterns, two played together and the 3rd played before end of interlude 3.
Pattern 1
   G            Am           F
E|-------15-13~-------15-13~-------15-13~-------15-13~-|
B|-12-13--------12-13--------12-13--------12-13--------|
G|-----------------------------------------------------|
D|-----------------------------------------------------|
A|-----------------------------------------------------|
E|-----------------------------------------------------|

   G            Am           F                           C
E|-------15-13~-------15-13~-------15-13~-------15-13~-|-----|
B|-12-13--------12-13--------12-13--------12-13--------|-13~-|
G|-----------------------------------------------------|-----|
D|-----------------------------------------------------|-----|
A|-----------------------------------------------------|-----|
E|-----------------------------------------------------|-----|

Pattern 2
   G           Am          F
E|-------------------------------------------------|
B|-------------------------------------------------|
G|------12-10~------12-10~------12-10~------12-10~-|
D|-9-10--------9-10--------9-10--------9-10--------|
A|-------------------------------------------------|
E|-------------------------------------------------|

   G           Am          F
E|-------------------------------------------------|
B|-------------------------------------------------|
G|------12-10~------12-10~------12-10~------12-10~-|
D|-9-10--------9-10--------9-10--------9-10--------|
A|-------------------------------------------------|
E|-------------------------------------------------|

Pattern 3
   G             Am            F
E|-------full----------full----------full----------full----|
B|-------15’-15~-------15’-15~-------15’-15~-------15’-15~-|
G|-12-14---------12-14---------12-14---------12-14---------|
D|---------------------------------------------------------|
A|---------------------------------------------------------|
E|---------------------------------------------------------|

Refrain
Semua tak sama, tak pernah sama
Apa yang kusentuh, apa yang kukecup
Sehangat pelukmu, selembut belaimu
Tak ada satu pun yang mampu menjadi sepertimu

Ari plays:
   C                               CMaj7
E|---½---½---½---½---½---½---½---½---½---½---½---½---½---½---½---½-| 
B|-12’-12’-12’-12’-12’-12’-12’-12’-12’-12’-12’-12’-12’-12’-12’-12’-|
G|-----------------------------------------------------------------|
D|-----------------------------------------------------------------|
A|-----------------------------------------------------------------|
E|-----------------------------------------------------------------|

   Am              F           G
E|------------------½--½--½--½--½--½--½--½-|
B|-8-8-8-8-8-8-8-8-5’-5’-5’-5’-5’-5’-5’-5’-|
G|-----------------------------------------|
D|-----------------------------------------|
A|-----------------------------------------|
E|-----------------------------------------|

   C                               Am
E|---½---½---½---½---½---½---½---½--½--½--½--½--½--½--½--½-|
B|-12’-12’-12’-12’-12’-12’-12’-12’-5’-5’-5’-5’-5’-5’-5’-5’-|
G|---------------------------------------------------------|
D|---------------------------------------------------------|
A|---------------------------------------------------------|
E|---------------------------------------------------------|

   G                               Dm
E|---½---½---½---½---½---½---½---½---½---½---½---½---½---½---½---½-|
B|-12’-12’-12’-12’-12’-12’-12’-12’-17’-17’-17’-17’-17’-17’-17’-17’-|
G|-----------------------------------------------------------------|
D|-----------------------------------------------------------------|
A|-----------------------------------------------------------------|
E|-----------------------------------------------------------------|

   F               G
E|---½---½---½---½-----|
B|-12’-12’-12’-12’-12~-|
G|---------------------|
D|---------------------|
A|---------------------|
E|---------------------|

C                       Am
Sampai kapan kau terus bertahan
G                       Dm    G  
Sampai kapan kau tetap tenggelam
C                       Am
Sampai kapan kau mesti terlepas
G         Dm         F    G
Buka mata dan hatimu relakan semua
Tap to rate this tab
# A B C D E F G H I J K L M N O P Q R S T U V W X Y Z