Song name
# A B C D E F G H I J K L M N O P Q R S T U V W X Y Z

Palma Violets - Best Of Friends tab

Palma Violets- Best of Friends
Will updated tab when there is some lyrics on the internet.

intro   Times 8

---5-5555-555---------------------------|
---4-4444-444-0-2-0-5-------------------|
---5-5555-555-0-2-0-4-------------------|
---5-5555-555-0-2-0-5-------------------|
---3-3333-333 0-0-0-5-------------------|
--------------------3-------------------|
Verse 1
----------5-----------------------------| TIMES 5
--222-000-4-----------------------------|
--222-000-5-----------------------------|
--222-000-5-----------------------------|
--000-000-3-----------------------------|
----------------------------------------|


-10-10-10--5----------------------------| TIMES 1
-11-11-11--4----------------------------|
-12-12-12--5----------------------------|
-12-12-12--5----------------------------|
-10-10-10--3----------------------------|
----------------------------------------|

----------5-----------------------------| TIMES 2
--222-000-4-----------------------------|
--222-000-5-----------------------------|
--222-000-5-----------------------------|
--000-000-3-----------------------------|
----------------------------------------|

Chorus
------------------33333333--------------|TIMES 4
-1111111111111111-44444444-33333333-----|
-2222222222222222-55555555-44444444-----|
-3333333333333333-55555555-55555555-----|
-3333333333333333-33333333-55555555-----|
-1111111111111111----------33333333-----|

-3-3-----------3-3----------------------|
-4-4-----------4-4----------------------|
-5-5-----------5-5----------------------|
-5-5--0--2-3-2-5-5-3-2-0-2--------------|
-3-3-----------3-3---------3------------|
----------------------------------------|

Verse 2
----------5------------------------------| TIMES 5
--222-000-4------------------------------|
--222-000-5------------------------------|
--222-000-5------------------------------|
--000-000-3------------------------------|
-----------------------------------------|


-10-10-10--5-----------------------------| TIMES 1
-11-11-11--4-----------------------------|
-12-12-12--5-----------------------------|
-12-12-12--5-----------------------------|
-10-10-10--3-----------------------------|
-----------------------------------------|

----------5------------------------------| TIMES4
--222-000-4------------------------------|
--222-000-5------------------------------|
--222-000-5------------------------------|
--000-000-3------------------------------|
-----------------------------------------|

Chorus 2
------------------33333333---------------|TIMES 4
-1111111111111111-44444444-33333333------|
-2222222222222222-55555555-44444444------|
-3333333333333333-55555555-55555555------|
-3333333333333333-33333333-55555555------|
-1111111111111111----------33333333------|

Solo

-----------------------------------------|
--10-10-10-10-8---10-8-------------------|
---------------9-7----999999999-10-9-7-5-|
-----------------------------------------|
-----------------------------------------|
-----------------------------------------|

---------222-333-555-777-8-8-8--101010---|
-333-222-333-444-666-888-9-9-9--111111---|
-444-222-444-555-777-999-101010-121212---|
-555-222-444-555-777-999-101010-121212---|
-555-000-222-333-555-777-8-8-8--101010---|
-333-------------------------------------|

Chorus 3
------------------33333333----------------|TIMES 4
-1111111111111111-44444444-33333333-------|
-2222222222222222-55555555-44444444-------|
-3333333333333333-55555555-55555555-------|
-3333333333333333-33333333-55555555-------|
-1111111111111111----------33333333-------|


Solo 2/outro

-33-55-77-88-1010-1313-13-12-10-----------|
------------------------------------------|
------------------------------------------|
------------------------------------------|
------------------------------------------|
------------------------------------------|

---------222-333-555-777-8-8-8--101010-3~-|
-333-222-333-444-666-888-9-9-9--111111-3~-|
-444-222-444-555-777-999-101010-121212-4~-|
-555-222-444-555-777-999-101010-121212-5~-|
-555-000-222-333-555-777-8-8-8--101010-5~-|
-333-----------------------------------3~-|



GREAT NEW BAND LOOKING FORWORD TO THE FIRST ALBUM AND ARE THE BEST LIVE BAND OF 
THE 21ST CENTURY!!!

www.palmaviolets.co.uk/
Tap to rate this tab
# A B C D E F G H I J K L M N O P Q R S T U V W X Y Z