Song name
# A B C D E F G H I J K L M N O P Q R S T U V W X Y Z

Palmer Robert - Addicted To Love tab

Help us improve GuitareTab! Take a short survey!
-------------------------------------------------------------------------------
                             ADDICTED TO LOVE - Robert Palmer
-------------------------------------------------------------------------------
Tabbed by: Alex Zyka
Email: zikasalex@hotmail.com

Tuning: Standard

SOLO

e|--------------------------------------------------7b(7.5)b(7)b(8)b(7.5)~\--|
B|---------------------------------------/8b(10)~----------------------------|
G|--------------------------------5------------------------------------------|
D|-----------------------------5---------------------------------------------|
A|--------------------------7------------------------------------------------|
E|----/7b(8)------3/5~-------------------------------------------------------|

e|---------------------------------------------------------------------------|
B|---------------------------------------------------------------------------|
G|---*7b(9)--*7b(9)--*7b(9)--*5----*7---*7b(9)b(7)p5-7-*7~---5----7---5------|
D|-------------------------------7----7-------------------------7---5---*4~~-|
A|---------------------------------------------------------------------------|
E|---------------------------------------------------------------------------|


| /    slide in
| \    slide out
| p    pull-off
| b(x) bend to x fret
| ~    vibrato
| *    semi pinch harmonic

===============================================================================
Related for Addicted To Love tab