Guitaretab - guitar tabs
Song name
# A B C D E F G H I J K L M N O P Q R S T U V W X Y Z

Panda - Hasta El Final Acustica tab

Highlighted       Show chord diagrams
casi toda la cancion va en el circulo de
A (la) para los q han stado en rondalla ya
c saben los acordes y si no se  los saben
son los siguientes A E F#m D E

intro
       A   (tu le puedes poner el ritmo a tu antojo ya q no hay un ritmo especifico)
e|----------  -------|
B|-10-10-9/10--------|
G|---9---------------|
D|-------------------|
A|-------------------|
E|-------------------|

      E
e|----------  -------|
B|-10-10-9/10--------|
G|---9---------------|
D|-------------------|
A|-------------------|
E|-------------------|

       F#m
e|----------  -------|
B|-10-10-9/10--------|
G|---9---------------|
D|-------------------|
A|-------------------|
E|-------------------|

              D                 E
e|-----------------10-9-|
B|----14-12-10-12-------|
G|----------------------|
D|----------------------|
A|----------------------|
E|----------------------|


Verso 1:
 A             E                       F#m
te pido por favor guardar silencio amor
                  D       E
me desconcentrare a la primera
 A            E                      F#m
te pido porfavor la simple aceptacion
                     D         E
que nunca fuiste tu la mas sincera.

 A          E
Facil yo pude haber muerto
 F#m         D        E
junto a ti y a la primera
 A            E
y en tu tumba debe decir
     F#m          D         E   D
que nunca fuiste la mas sincera.

 A             E                      F#m
Te pido porfavor recuerda siempre amor
                     D           E
que yo aqui estare siempre que quieras
 A                      E              F#m
lo que tendras que hacer solo resucitar
                     D        E   D
pues yo te elimine siempre recuerda.


 CORO:
                A                   E
Que hasta el final conmigo vas a estar
                 F#m                 D
conmigo has de estar recuerda que todo
          E                  A
lo sigue siempre hasta el final conmigo
         E                   F#m
vas a estar conmigo has de estar promesas
        D   E
son promesas.


( Repite el Intro )
[ Tab from: http://www.guitaretab.com/p/panda/109251.html ]
Verso 2:
 A                 E            F#m
Te pido ve a tachar en tu agenda
                   D         E
pues ya no estaras para cumplirla
 A             E               F#m
pero tu estaras aqui junto a mi
                      D         E
si no es por voluntad sera por fuerza.


 A          E
Facil yo pude haber muerto
 F#m         D        E
junto a ti y a la primera
 A            E
y en tu tumba debe decir
     F#m          D         E   D
que nunka fuiste la mas sincera.


CORO:
               A                   E
Que hasta el final conmigo vas a estar
                 F#m                 D
conmigo has de estar recuerda que todo
          E                  A
lo sigue siempre hasta el final conmigo
         E                   F#m
vas a estar conmigo has de estar promesas
        D   E
son promesas.


Interludio o Bridge:


F#m                   D
No tienes una idea de la soledad
               A
pues ya estas con alguien mas
     E                   F#m
el tiempo te va a enseņar
                           D
yo siempre fui el mejor para perdonar
        A
y ahora ya no es igual
    E
contigo batallo.!

F#m                   D
No tienes una idea de la soledad  (Regreeeeeeeeesaaa)
               A
pues ya estas con alguien mas
     E                   F#m
el tiempo te va a enseņar
                        D
yo siempre fui el mejor para perdonar (Regreeeeeeeeesaaa)
        A              E                    F#m en deciseisavos un compas de 4 tiempos
y ahora ya no es igual.!!!


Outro:

    A

e|-----------------|
B|-10-10-9-9-9-10--|
G|---9-----------9-|
D|-----------------|
A|-----------------|
E|-----------------|
    E
e|-----------------|
B|-10-10-9-9-9-10--|
G|---9-----------9-|
D|-----------------|
A|-----------------|
E|-----------------|
    F#m
e|-----------------|
B|-10-10-9-9-9-10--|
G|---9-----------9-|
D|-----------------|
A|-----------------|
E|-----------------|
      D                               E            A
e|-------------------------|
B|-14-12-10-12-10-9-7-5/10-|
G|-------------------------|
D|-------------------------|
A|-------------------------|
E|-------------------------|


si te cuesta trabajo el outro o el intro hazlo con los acordes tambien se escucha
bien yo lo he hecho en mis presentaciones en la escuela.

ojala sea de tu agrado esta tab vota por ella porfavor grax.
Related for Hasta El Final Acustica tab
Advertisement will be closed in 10 seconds