Song name
# A B C D E F G H I J K L M N O P Q R S T U V W X Y Z

Panda - Mi Muneca tab

Mi muneca-Panda


-Intro:

E|------------------------------------|
B|-1---3---1---3-5-6-5-3-1--1h3-1-0-1-|
G|---0---0---0------------------------|  x2
D|------------------------------------|
A|------------------------------------|
E|------------------------------------|


Guitarra 1:                      
    
E|----------------------|       
B|----------------------|       
G|-5555-----------------|       
D|-5555-5555-7777-3333--| x4    
A|-3333-5555-7777-3333--|      
E|------3333-5555-1111--|      

Guitarra 2:

E|----------------------------|
B|-5-3-1-3-5-6-5-3-1-1h3-5-5~-|
G|----------------------------|
D|----------------------------| x4
A|----------------------------|
E|----------------------------|

-Verso 1:

Guitarra 1:

E|----------------------|       
B|----------------------|       
G|-5555-----------------|       
D|-5555-5555-7777-3333--| x4    
A|-3333-5555-7777-3333--|      
E|------3333-5555-1111--|    

-Coro 1:

Guitarra 1:

E|----------------------|       
B|----------------------|       
G|-5555-----------------|       
D|-5555-5555-7777-3333--| x4   
A|-3333-5555-7777-3333--|      
E|------3333-5555-1111--|    

Se repite parte del intro:

Guitarra 1:                      
    
E|----------------------|       
B|----------------------|       
G|-5555-----------------|       
D|-5555-5555-7777-3333--| x4    
A|-3333-5555-7777-3333--|      
E|------3333-5555-1111--|      

Guitarra 2:

E|----------------------------|
B|-5-3-1-3-5-6-5-3-1-1h3-5-5~-|
G|----------------------------|
D|----------------------------| x4
A|----------------------------|
E|----------------------------|

-Verso 2:

Guitarra 1:

E|----------------------|       
B|----------------------|       
G|-5555-----------------|       
D|-5555-5555-7777-3333--| x3    
A|-3333-5555-7777-3333--|      
E|------3333-5555-1111--|    

E|-----------------------|       
B|-----------------------|       
G|-5555------------------|       
D|-5555-5555-7777-3~-----|     
A|-3333-5555-7777-3~-----|      
E|------3333-5555-1~-----|

Coro 2:

Guitarra 1:

E|-----------------------|
B|-----------------------|
G|-7777------------------|
D|-7777-7777-9999-5555---|
A|-5555-7777-9999-5555---|
E|------5555-7777-3333---|

-Solo:

Guitarra 1:

E|----------------------|       
B|----------------------|       
G|-5555-----------------|       
D|-5555-5555-7777-3333--| x4    
A|-3333-5555-7777-3333--|      
E|------3333-5555-1111--|

Guitarra 2:

E|------------------------------------------------|
B|----9-------------7-6----9----------10h11-10h11-|
G|-10---8--10-8-6~-6----10---8--10-8-6------------|
D|------------------------------------------------|
A|------------------------------------------------|
E|------------------------------------------------|

E|---------------------8-10--------------------------------------|
B|----9-----------10h11-----9-7-6--9-7-6--9-7-6--9-7-6-8h10-8h10-|
G|-10---8--10-8-6~-----------------------------------------------|
D|---------------------------------------------------------------|
A|---------------------------------------------------------------|
E|---------------------------------------------------------------|

Coro 3:

Guitarra 1:

E|----------------------|       
B|----------------------|       
G|-5555-----------------|       
D|-5555-5555-7777-3333--| x4    
A|-3333-5555-7777-3333--|      
E|------3333-5555-1111--|

Outro:

Guitarra 1:

  Sabes qien fue........
E|---------------------------------------------|
B|---------------------------------------------|
G|-7777----------------7777---------------7777-|
D|-7777-5555-7777-5555-7777-5555-77777777-7777-|
A|-5555-5555-7777-5555-5555-5555-77777777-5555-|
E|------3333-5555-3333------3333-55555555------|

  Yo la qiero....
E|----------------------------------------|
B|----------------------------------------|
G|----------------7777---------------7777-|
D|-5555-7777-5555-7777-5555-77777777-7777-|
A|-5555-7777-5555-5555-5555-77777777-5555-|
E|-3333-5555-3333------3333-55555555------|
  
  Nadie la hizo llorar...
E|--------------------|
B|--------------------|
G|----------77777777--|
D|-77777777-77777777--| x3
A|-77777777-55555555--|
E|-55555555-----------|

  Nadie la hizo llorar
E|--------------|
B|--------------|
G|----------7~--|
D|-77777777-7~--|
A|-77777777-5~--|
E|-55555555-----|

W7P>

Tap to rate this tab
 
# A B C D E F G H I J K L M N O P Q R S T U V W X Y Z