Song name
# A B C D E F G H I J K L M N O P Q R S T U V W X Y Z

Panik - Unsere Zeit tab

			     Unsere Zeit by Panik
-------------------------------------------------------------------------------
Tabbed by: Unsaidxpl
Email: unsaidxpl@bk.ru

Tuning: Drop C

Riff 1

D|-----------------------------------------------------------|
A|-----------------------------------------------------------|
F|-----------------------------------------------------------|
C|2---2-0-2-3-2--2---2-0-3-0-3-0-2-2-0-2-3-2---2--2-0-5-5-4-4| x2
G|2---2-0-2-3-2--2---2-0-3-0-3-0-2-2-0-2-3-2---2--2-0--------|
C|2---2-0-2-3-2--2---2-0-3-0-3-0-2-2-0-2-3-2---2--2-0--------|

Pre-Chorus

D|--------------------------------|
A|--------------------------------|
F|--------------------------------|
C|8-------10-------5-------2-0-2-3|
G|8-------10-------5-------2-0-2-3|
C|8-------10-------5-------2-0-2-3|

Chorus

D|--------------------------------------------------------------------------|
A|--------------------------------------------------------------------------|
F|--------------------------------------------------------------------------|
C|2-2-2-2-2-2-2-2-10-10-10-10-10-10-10-10-10-5-5-5-5-5-5-5-5-5-5-5-7-7-2-2-5|
G|2-2-2-2-2-2-2-2-10-10-10-10-10-10-10-10-10-5-5-5-5-5-5-5-5-5-5-5-7-7-2-2-5|
C|2-2-2-2-2-2-2-2-10-10-10-10-10-10-10-10-10-5-5-5-5-5-5-5-5-5-5-5-7-7-2-2-5|

Bridge
                             1          2
D|-----------------------|-------|-------------|
A|-----------------------|-------|-------------|
F|-----------------------|-------|-------------|
C|8---8-8-5---5-5-0---0-0|0---0-0|2---2-0-2-3-2|
G|8---8-8-5---5-5-0---0-0|0---0-0|2---2-0-2-3-2|
C|8---8-8-5---5-5-0---0-0|0---0-0|2---2-0-2-3-2|

That's all
===============================================================================
Tap to rate this tab
# A B C D E F G H I J K L M N O P Q R S T U V W X Y Z