Guitaretab - guitar tabs
Song name
# A B C D E F G H I J K L M N O P Q R S T U V W X Y Z

Pantera - 25 Years tab

-------------------------------------------------------------------------------
			     25 Years - Pantera
-------------------------------------------------------------------------------
Tabbed by: Mark
Email: dustyattic at hotmail

This way moves smoothly for me and uses more of the neck for a nice sound.
Tune to the album, standard and I think down 1/2 or 1 step I don't know.
The ^^ mean bend the note they are typed above, not the actual string they
are above. If you like this PLEASE rate it highly thank you.

On the part before the fast harmonic picking you just have to listen to the
rhythm and play that chord. First couple verse lines its on the beat, next
couple it's on the off beat. Listen to get it right.

On the part where it says "depress bridge" you need a floating bridge that can be pulled
with the bar. In this case, just play the chord and then with the side of your hand
apply pressure to the bridge to do effectively the same thing. The slide indicated 
this chord is a fast pick slide.

e|-------------------------------------------------------------|-------------|
B|-------------------------------------------------------------|-------------|
G|-------------------------0/5~--------------------------6-5-4-|-6----6-5-4--|
D|----------0------7-5-0-2------------------0------7-5-0-6-5-4-|-6----6-5-4--|
A|--7-5-0-2-----0-------------------7-5-0-2-----0--------4-3-2-|-4----4-3-2--|
E|0-----------3-------------------0-----------3----------4-3-2-|-4----4-3-2--|
[ Tab from: http://www.guitaretab.com/p/pantera/14110.html ]
e|- \------------------------------------------------------------------------|
B|--\------------------------------------------------------------------------|
G|--\----SLACK---------------------------------------------------------------|
D|-0\----STRINGS----------------FLICKING-------------------------------------|
A|-0\----W-BAR------------------SLACK-----------SLOWLY-RAISE-----------------|
E|-0\---------------------------STRINGS--------------------------------------|

e|---------------------------------------|--------|---TREMOLO-PICKING--------|
B|---------------------------------------|--------|--------------------------|
G|--7-----------7-------------REPEAT-----|--------|--------------------------|
D|--7-----------7-------------AS---------|--------|---(3)--(HARMONIC)--------|
A|-\5----------\5-------------NEEDED-----|---2----|--------------------------|
E|-\5----------\5------------------------|---0----|--------------------------|
    *Depress    *Depress
     Bridge      Bridge

e|---------------------------------------------------------------------------|
B|---------------------------------------------------------------------------|
G|----------------------------^-INDICATES-1/2--------------------------------|
D|------------------------------STEP-BEND-AND-RELEASE_ON---------------------|
A|---^-3-6---^---4--------------E-STRING-------------------------------------|
E|-0-5-----0-3-6-------------------------------------------------------------|

e|----------------------------|----------------------------------------------|
B|----------------------------|----------------------------------------------|
G|----------------------------|----------------------------------------------|
D|----------------------------|----------------------------------------------|
A|--------^^------------------|-----^^-INDICATES-BEND-ON---------------------|
E|-0--000-13--0--000-1--/13\1-|--------E-STRING-THIRTEEN---------------------|


| /  slide up
| \  slide down
| h  hammer-on
| p  pull-off
| ~  vibrato
| +  harmonic
| x  Mute note
===================================================================
Related for 25 Years tab
Advertisement will be closed in 10 seconds