Guitaretab - guitar tabs
Song name
# A B C D E F G H I J K L M N O P Q R S T U V W X Y Z

Pantera - Fucking Hostile tab

#----------------------------------PLEASE NOTE---------------------------------#
#This file is the author's own work and represents their interpretation of the #
#song. You may only use this file for private study, scholarship, or research. #
#------------------------------------------------------------------------------##

                                 FUCKING HOSTILE
                             As recorded by Pantera
                  (From the 1992 Album VULGAR DISPLAY OF POWER)

Words and Music by Phillip Anselmo, Darrell Lance Abbot, Rex Brown & Vinnie Paul
Arranged by Pantera
Transcribed by Yuji Hagino

Gtr I (Eb Ab Db Gb Bb Eb) - 'Untitled'
Gtr II (Eb Ab Db Gb Bb Eb) - 'Untitled'
Gtr III (Eb Ab Db Gb Bb Eb) - 'Untitled'
Gtr IV (Eb Ab Db Gb Bb Eb) - 'Untitled'
Gtr V (Eb Ab Db Gb Bb Eb) - 'Untitled'

   Verse 1
    Q=190
    A5                  G5  A5                  G5  A5                  G5
   4/4
    Gtrs I, II
    E E S S E E S S S S E   E E S S E E S S S S E   E E S S E E S S S S E
||------------------------|-----------------------|-----------------------|
||o-----------------------|-----------------------|-----------------------|
||------------------------|-----------------------|-----------------------|
||--7-------------------5-|-7-------------------5-|-7-------------------5-|
||o-7-------------------5-|-7-------------------5-|-7-------------------5-|
||--5-5-5-5-5-5-5-5-5-5-3-|-5-5-5-5-5-5-5-5-5-5-3-|-5-5-5-5-5-5-5-5-5-5-3-|


  A5                  G5  G5 F#5F5 C5
  E E S S E E S S S S E   Q  Q  Q  Q   4x
|-----------------------|--------------||
|-----------------------|-------------o||
|-----------------------|--------------||
|-7-------------------5-|----------5---||
|-7-------------------5-|-5--4--3--3--o||
|-5-5-5-5-5-5-5-5-5-5-3-|-3--2--1------||


  A5                  D5  C5 C5G5     G5D5
             ~~~~~~~
  E S S S S  E  +Q.   E   Q  e E +Q   e E
|-----------------------|-----------------|
|-----------------------|-----------------|
|---------------------7-|-5--5----------7-|
|---------------------7-|-5--5-5-(5)--5-7-|
|-7-7-7-7-7s12-(12)---5-|-3--3-5-(5)--5-5-|
|-5-5-5-5-5-------------|------3-(3)--3---|


  C5 C5G5     G5D5  C5 C5G5  G5A5                             D5
  Q  e E +Q   E E   Q  e E E E Q    S S S S S S S S S S S S E E
|-----------------|---------------|-----------------------------|
|-----------------|---------------|-----------------------------|
|-5--5----------7S|=5--5----------|---------------------------7-|
|-5--5-5-(5)--5-7S|=5--5-5---5-7--|---------------------------7-|
|-3--3-5-(5)--5-5S|=3--3-5---5-7--|---------------------------5-|
|------3-(3)--3---|------3---3-5--|-5-5-5-5-5-5-5-5-5-5-5-5-5---|


  C5 C5G5     G5D5  C5 C5G5     G5D5  C5 C5G5    G#A5
  Q  e E +Q   e E   Q  e E +Q   E E   Q  E E +E  E Q
|-----------------|-----------------|-----------------|
|-----------------|-----------------|-----------------|
|-5--5----------7-|-5--5----------7S|=5--5------------|
|-5--5-5-(5)--5-7-|-5--5-5-(5)--5-7S|=5--5-5-(5)-6-7--|
|-3--3-5-(5)--5-5-|-3--3-5-(5)--5-5S|=3--3-5-(5)-6-7--|
|------3-(3)--3---|------3-(3)--3---|------3-(3)-4-5--|


             E5      G5    E5G5   E5      G5    E5G5   E5      G5    E5G5
  W          E S S E E +E  E Q    E S S E E +E  E Q    E S S E E +E  E Q
|----------|--------------------|--------------------|----------------------|
|----------|--------------------|--------------------|----------------------|
|----------|--------------------|--------------------|----------------------|
|----------|---------5-(5)---5--|---------5-(5)---5--|---------5-(5)---5----|
|----------|-2-2-2-2-5-(5)-2-5--|-2-2-2-2-5-(5)-2-5--|-2-2-2-2-5-(5)-2-5----|
|----------|-0-0-0-0-3-(3)-0-3--|-0-0-0-0-3-(3)-0-3--|-0-0-0-0-3-(3)-0-3----|


  E5      G5    E5G5   E5      G5    E5G5   E5      G5    E5G5   E5
  E S S E E +E  E Q    E S S E E +E  E Q    E S S E E +E  E Q    E E Q  H
|--------------------|--------------------|--------------------|-------------|
|--------------------|--------------------|--------------------|-------------|
|--------------------|--------------------|--------------------|-------------|
|---------5-(5)---5--|---------5-(5)---5--|---------5-(5)---5--|-7-----------|
|-2-2-2-2-5-(5)-2-5--|-2-2-2-2-5-(5)-2-5--|-2-2-2-2-5-(5)-2-5--|-7-----------|
|-0-0-0-0-3-(3)-0-3--|-0-0-0-0-3-(3)-0-3--|-0-0-0-0-3-(3)-0-3--|-5-----------|


 Guitar Solo
  Gtrs I, II
   S  S  S  S  S  S  S  S  S  S  S  S  S  S  S  S
|-------------------------------------------------|
|-------------------------------------------------|
|-------------------------------------------------|
|-------------------------------------------------|
|--7--7--7--7--7--7--7--7--7--7--7--7--7--7--7--7-|
|--5--5--5--5--5--5--5--5--5--5--5--5--5--5--5--5-|
|
| Gtrs IV, V
|  S  S  S  S  S  S  S  S  S  S  S  S  S  S  S  S
|-------------------------------------------------|
|-------------------------------------------------|
|-12h14-14-14-14-14-14-14-12h14-14-14-14-14-14-14-|
|-------------------------------------------------|
|-------------------------------------------------|
|-------------------------------------------------|


   S  S  S  S  S  S  S  S  S  S  S  S  S  S  S  S
|-------------------------------------------------|
|-------------------------------------------------|
|-------------------------------------------------|
|-------------------------------------------------|
|--7--7--7--7--7--7--7--7--7--7--7--7--7--7--7--7-|
|--5--5--5--5--5--5--5--5--5--5--5--5--5--5--5--5-|
|
|  S  S  S  S  S  S  S  S  S  S  S  S  S  S  S  S
|-------------------------------------------------|
|-------------------------------------------------|
|-12h14-14-14-14-14-14-14-12h14-14-14-14-14-14-14-|
|-------------------------------------------------|
|-------------------------------------------------|
|-------------------------------------------------|


   S S S S   S  S S S  S S S S S S S S    S S S S S S S S  S S S S S S S S
|--------------------------------------|-----------------------------------|
|--------------------------------------|-----------------------------------|
|--------------------------------------|-----------------------------------|
|--------------------------------------|-----------------------------------|
|--7-7-7-7---7--7-7-7--7-7-7-7-7-7-7-7-|--7-7-7-7-7-7-7-7--7-7-7-7-7-7-7-7-|
|--5-5-5-5---5--5-5-5--5-5-5-5-5-5-5-5-|--5-5-5-5-5-5-5-5--5-5-5-5-5-5-5-5-|
|
|  ~~~~~~~~~~~~~~~~~~~~~~~~~~~~~~~~~~~~~~~~~~~~~~~~~~~~~~~~~~
|  Q        +Q         H                  H                H
|--------------------------------------|-----------------------------------|
|--------------------------------------|-12---------------14---------------|
|-12-------(12)-------14---------------|------------------14---------------|
|-12-------(12)-------14---------------|-----------------------------------|
|--------------------------------------|-----------------------------------|
|--------------------------------------|-----------------------------------|


  G5          F#5         F5          C5
   Q           Q           Q           Q
|-------------------------------------------------|
|-------------------------------------------------|
|-------------------------------------------------|
|--------------------------------------5----------|
|--5-----------4-----------3-----------3----------|
|--3-----------2-----------1----------------------|
|
|  S  S  S  S  S  S  S  S  S  S  S  S  S  S  S  S
|-17-20-17----19-17----20-17----19-17----20-17----|
|----------20-------20-------20-------20-------20-|
|-------------------------------------------------|
|-------------------------------------------------|
|-------------------------------------------------|
|-------------------------------------------------|


  A5
   S  S  S  S  S  S  S  S  S  S  S  S  S  S  S  S
|-------------------------------------------------|
|-------------------------------------------------|
|-------------------------------------------------|
|-------------------------------------------------|
|--7--7--7--7--7--7--7--7--7--7--7--7--7--7--7--7-|
|--5--5--5--5--5--5--5--5--5--5--5--5--5--5--5--5-|
|
|  S  S  S  S  S  S  S  S  S  S  S  S  S  S  S  S
|-19-17----20-17----19-17----20-17----19-17----20-|
|-------20-------20-------20-------20-------20----|
|-------------------------------------------------|
|-------------------------------------------------|
|-------------------------------------------------|
|-------------------------------------------------|


   S  S  S  S  S  S  S  S          S  S S S S S S S
|---------------------------------------------------|
|---------------------------------------------------|
|---------------------------------------------------|
|---------------------------------------------------|
|--7--7--7--7--7--7--7--7----------7--7-7-7-7-7-7-7-|
|--5--5--5--5--5--5--5--5----------5--5-5-5-5-5-5-5-|
|
|                          ~~~~~~~~~~~
|  S  S  S  S  S  S  S  S  a      +H
|-17----19-17----20-17------------------------------|
|----20-------20-------20-20b22==(20)---------------|
|---------------------------------------------------|
|---------------------------------------------------|
|---------------------------------------------------|
|---------------------------------------------------|

[ Tab from: http://www.guitaretab.com/p/pantera/14118.html ]
           S  S S S S S S S          S  S S S  S S S S
|-------------------------------------------------------|
|-------------------------------------------------------|
|-------------------------------------------------------|
|-------------------------------------------------------|
|----------7--7-7-7-7-7-7-7----------7--7-7-7--7-7-7-7--|
|----------5--5-5-5-5-5-5-5----------5--5-5-5--5-5-5-5--|
|
|  TP      TP                TP      TP        TP
|  a      +H                 a      +Q         Q
|-------------------------------------------------------|
|-20b22==(20)---------------20b22==(20)-------20--------|
|-------------------------------------------------------|
|-------------------------------------------------------|
|-------------------------------------------------------|
|-------------------------------------------------------|


   S S  S  S  S  S  S  S  S  S  S  S  S  S  S  S
|------------------------------------------------|
|------------------------------------------------|
|------------------------------------------------|
|------------------------------------------------|
|--7-7--7--7--7--7--7--7--7--7--7--7--7--7--7--7-|
|--5-5--5--5--5--5--5--5--5--5--5--5--5--5--5--5-|
|
|  E    S  S  S  S  S  S  S  S  S  S  S  S  S  S
|-17---18-18-18-18-18-18-18-18-18-18-18-18-18-18-|
|------------------------------------------------|
|------------------------------------------------|
|------------------------------------------------|
|------------------------------------------------|
|------------------------------------------------|


        G5    F#5F5 C5   A5                    D5
                                      ~~~~~~~
          Q   Q  Q  Q     E  S S S S  E  +Q.   E
|----------------------|-------------------------|
|----------------------|-------------------------|
|----------------------|-----------------------7-|
|-------------------5--|-----------------------7-|
|---------5---4--3--3--|--7--7-7-7-7s12-(12)---5-|
|---------3---2--1-----|--5--5-5-5-5-------------|
|
| Gtr III                Gtrs IV, V
|                         \2
|         ~~~~
|  a     +W               W
|----------------------|-------------------------|
|-20b24-(20)-----------|-------------------------|
|----------------------|-14----------------------|
|----------------------|-12----------------------|
|----------------------|-------------------------|
|----------------------|-------------------------|


  C5             G5            D5
           Q   e  E     +Q   e E
|--------------------------------|
|--------------------------------|
|----------5---5---------------7-|
|----------5---5--5-----(5)--5-7-|
|----------3---3--5-----(5)--5-5-|
|-----------------3-----(3)--3---|
|
|                 ~~~~~~~~~~
|  a      +Q.     E     +H
|--------------------------------|
|--------------------------------|
|-15b17==(15)----10b12-(10)------|
|--------------------------------|
|--------------------------------|
|--------------------------------|


  C5       G5            D5  C5       G5           A5
   Q     e  E     +Q   E E    Q     e  E      E  E Q
|--------------------------|---------------------------|
|--------------------------|---------------------------|
|--5-----5---------------7S|==5-----5------------------|
|--5-----5--5-----(5)--5-7S|==5-----5--5---------5-7---|
|--3-----3--5-----(5)--5-5S|==3-----3--5---------5-7---|
|-----------3-----(3)--3---|-----------3---------3-5---|
|
|           ~~~~~~~~~~                 ~~~~~~~~~~
|  Q.       E     +H          Q.       E     +H
|--------------------------|---------------------------|
|--------------------------|---------------------------|
|-15b17----10b12-(10)------|-15b17----10b12-(10)-------|
|--------------------------|---------------------------|
|--------------------------|---------------------------|
|--------------------------|---------------------------|


                                D5  C5       G5            D5
   S    S S S S S S S S S S S E E    Q     e  E     +Q   e E
|---------------------------------|--------------------------|
|---------------------------------|--------------------------|
|-------------------------------7-|--5-----5---------------7-|
|-------------------------------7-|--5-----5--5-----(5)--5-7-|
|-------------------------------5-|--3-----3--5-----(5)--5-5-|
|--5----5-5-5-5-5-5-5-5-5-5-5-5---|-----------3-----(3)--3---|
|
|  TP                                         ~~~~~~~~~~
|  W                                 Q.       E     +H
|---------------------------------|--------------------------|
|---------------------------------|--------------------------|
|-12b14---------------------------|-15b17----10b12-(10)------|
|---------------------------------|--------------------------|
|---------------------------------|--------------------------|
|---------------------------------|--------------------------|


        C5             G5           D5
          Q   e          E   +Q   E E
|-------------------------------------|
|-------------------------------------|
|---------5---5---------------------7S|
|---------5---5----------5---(5)--5-7S|
|---------3---3----------5---(5)--5-5S|
|------------------------3---(3)--3---|
|
|         ~~~~           ~~~~~~~~
|  a     +Q.     a      +E   +H
|-------------------------------------|
|-------------------------------------|
|-15b17-(15)----10b12==(10)-(10)------|
|-------------------------------------|
|-------------------------------------|
|-------------------------------------|


        C5               G5          G#A5
          Q           E    E     +E  E Q
|-----------------------------------------|
|-----------------------------------------|
|---------5-----------5-------------------|
|---------5-----------5----5-----(5)-6-7--|
|---------3-----------3----5-----(5)-6-7--|
|--------------------------3-----(3)-4-5--|
|
|         ~~~~        ~~~~~~~~~~~~~~~
|  a     +Q    a     +E   +E   a  H
|-----------------------------------------|
|-----------------------------------------|
|-15b17-(15)--10b12-(10)-(10)-10s12-------|
|-----------------------------10s12-------|
|-----------------------------------------|
|-----------------------------------------|


                                                    Gtrs I, II
    H.                                                Q
|-------------------------------------------------------------|
|-------------------------------------------------------------|
|-------------------------------------------------------------|
|-------------------------------------------------------------|
|-------------------------------------------------------------|
|----------------------------------------------------12\------|
|
|                                      \4
|  +S      +S   +S      +S   +E       +E   +E   +E   +E   +E
|-------------------------------------------------------------|
|-------------------------------------------------------------|
|-(12)b17-(12)r(12)b17-(12)r(12)b18==(12)-(12)-(12)-(12)-(12)-|
|-(12)b17-(12)r(12)b17-(12)r(12)b18--(12)-(12)-(12)-(12)-(12)-|
|-------------------------------------------------------------|
|-------------------------------------------------------------|


   Verse III
    A5                  G5  A5                  G5
    E E S S E E S S S S E   E E S S E E S S S S E
||------------------------|------------------------|
||o-----------------------|------------------------|
||------------------------|------------------------|
||--7-------------------5-|-7-------------------5--|
||o-7-x-x-x-x-x-x-x-x-x-5-|-7-x-x-x-x-x-x-x-x-x-5--|
||--5-5-5-5-5-5-5-5-5-5-3-|-5-5-5-5-5-5-5-5-5-5-3--|
|
|   W                       W
||------------------------|------------------------|
||o-----------------------|------------------------|
||------------------------|------------------------|
||------------------------|------------------------|
||o-----------------------|------------------------|
||------------------------|------------------------|

Out-Chorus
                G5 G#5A5                 G5 G#5A5              F#5G5 G#5A5
  W          Q  Q  Q  Q    W          Q  Q  Q  Q    W          Q  Q  Q  Q
|----------|-------------|----------|-------------|----------|---------------|
|----------|-------------|----------|-------------|----------|---------------|
|----------|-------------|----------|-------------|----------|---------------|
|----------|-------------|----------|-------------|----------|---------------|
|----------|----5--6--7--|----------|----5--6--7--|----------|-4--5--6--7----|
|----------|----3--4--5--|----------|----3--4--5--|----------|-2--3--4--5----|


  W          W          W
|----------|----------|----------|
|----------|----------|----------|
|----------|----------|----------|
|----------|----------|----------|
|----------|----------|----------|
|----------|----------|----------|


Duration Legend
---------------
W - whole; H - half; Q - quarter; E - 8th; S - 16th; T - 32nd; X - 64th; a - acciaccatura
+ - note tied to previous; . - note dotted; .. - note double dotted
Uncapitalized letters represent notes that are staccato (1/2 duration)
Irregular groupings are notated above the duration line
Duration letters will always appear directly above the note/fret number it represents the
duration for.  Duration letters with no fret number below them represent rests.  Multi-
bar rests are notated in the form Wxn, where n is the number of bars to rest for.  Low
melody durations appear below the staff

Tablature Legend
----------------
 h   - hammer-on
 p   - pull-off
 b   - bend
 pb  - pre-bend
 r   - bend release (if no number after the r, then release immediately)
 /\  - slide into or out of (from/to "nowhere")
 s   - legato slide
 S   - shift slide
  - natural harmonic
[n]  - artificial harmonic
n(n) - tapped harmonic
 ~   - vibrato
 tr  - trill
 T   - tap
 TP  - trem. picking
 PM  - palm muting
\n/  - tremolo bar dip; n = amount to dip
 \n  - tremolo bar down
 n/  - tremolo bar up
/n\  - tremolo bar inverted dip
 =   - hold bend; also acts as connecting device for hammers/pulls
 <>  - volume swell (louder/softer)
 x   - on rhythm slash represents muted slash
 o   - on rhythm slash represents single note slash

Misc Legend
-----------
 |  - bar
||  - double bar
||o - repeat start
o|| - repeat end
*|  - double bar (ending)
 :  - bar (freetime)
 $  - Segno
 &  - Coda
Tempo markers -  = BPM(8/16=s8/s16), where s8 = swing 8ths, s16 = swing 16ths


***************************************************************************************
* Generated using Power Tab Editor by Brad Larsen - http://powertab.guitarnetwork.org *
***************************************************************************************
Related for Fucking Hostile tab
×
Fucking Hostile