Song name
# A B C D E F G H I J K L M N O P Q R S T U V W X Y Z

Pantera - Walk tab

Help us improve GuitareTab! Take a short survey!
Pantera
Walk
Tuning: DADGBe

PH=Pinch Harmonic
PB=Pre-Bend

Intro
||---------------------------|--------------------------|
||o--------------------------|--------------------------|
||---------------------------|--------------------------|
||---------------------------|--------------------------|
||o--------------------------|--------------------------|
||--0-0-1b2b1-0----0-1b2b1-0-|-0-0-1b2b1-0----0-1b2b1-0-|

|--------------------------|---------------------------||
|--------------------------|--------------------------o||
|--------------------------|---------------------------||
|--------------------------|---------------------------||
|--------------------------|--------------------------o||
|-0-0-1b2b1-0----0-1b2b1-0-|-0-1b2b1-0----/10/4--/17/--||


Intro 2/Chorus 1
||---------------------|--------------------|--------------------|
||o--------------------|--------------------|--------------------|
||---------------------|--------------------|--------------------|
||-------------------8-|------------------6-|------------------6-|
||o------------------8-|------------------6-|------------------4-|
||--0-0-1b2b1-0----0-8-|-0-0-1b2b1-0----0-6-|-0-0-1b2b1-0----0-6-|

  PM,,|                       PM,,|
|--------------------------||-------------------------|
|-------------------------o||-------------------------|
|--------------------------||-------------------------|
|--------------------------||-------------------------|
|-------1---3---4---3---1-o||-------1---3---4---3---1-|
|-0-0-0-1-0-3-0-4-0-3-0-1--||-0-0-0-1-0-3-0-4-0-3-0-1-|


Chorus 3 and 4
||---------------------|--------------------|--------------------|
||o--------------------|--------------------|--------------------|
||---------------------|--------------------|--------------------|
||-------------------8-|------------------6-|------------------6-|
||o------------------8-|------------------6-|------------------4-|
||--0-0-1b2b1-0----0-8-|-0-0-1b2b1-0----0-6-|-0-0-1b2b1-0----0-6-|

  PM,,|                       PM,,|
|------------------------|x4|-------------------------|
|-------------------------o||-------------------------|
|--------------------------||-------------------------|
|--------------------------||-------------------------|
|-------1---3---4---3---1-o||-------1---3---4---3---1-|
|-0-0-0-1-0-3-0-4-0-3-0-1--||-0-0-0-1-0-3-0-4-0-3-0-1-|


Chorus 2
||---------------------|--------------------|--------------------|
||o--------------------|--------------------|--------------------|
||---------------------|--------------------|--------------------|
||-------------------8-|------------------6-|------------------6-|
||o------------------8-|------------------6-|------------------4-|
||--0-0-1b2b1-0----0-8-|-0-0-1b2b1-0----0-6-|-0-0-1b2b1-0----0-6-|

  PM,,|                       PM,,|
|--------------------------|||-------------------------|x3|
|-------------------------o|||o-------------------------o||
|--------------------------|||---------------------------||
|--------------------------|||---------------------------||
|-------1---3---4---3---1-o|||o-------1---3---4---3---1-o||
|-0-0-0-1-0-3-0-4-0-3-0-1--|||--0-0-0-1-0-3-0-4-0-3-0-1--||


Verse
||---------------------------|--------------------------|
||o--------------------------|--------------------------|
||---------------------------|--------------------------|
||---------------------------|--------------------------|
||o--------------------------|--------------------------|
||--0-0-1b2b1-0----0-1b2b1-0-|-0-0-1b2b1-0----0-1b2b1-0-|

|--------------------------|--------------------||
|--------------------------|-------------------o||
|--------------------------|-----------------6--||
|--------------------------|-----------x-6/4-6--||
|--------------------------|-----------x-6/4-4-o||
|-0-0-1b2b1-0----0-1b2b1-0-|-0-1b2b1-0-x-6/4----||


Pre-Chorus
         |Play 1 and 2 time,,,,,,,,,,,,,,,,,,,,,,,,,,,,,,,,,,,,,,,,,,,,,|
||-------|--------|--------------------------|-------------------------||
||o------|--------|--------------------------|------------------------o||
||--5----|--------|--------------------------|-------------------------||
||--5----|-6-7----|--------------------------|-------------------------||
||o-3----|-6-7----|--------------------------|------------------------o||
||--5----|-6-7----|-0-0-1b2b1-0----0-1b2b1-0-|-0-1b2b1-0----0-1b2b1-0--||

|3 time,,,,,,,,,,,,,|
|------|------|-----|
|------|------|-----|
|------|------|-----|
|-6----|-3----|-2-1-|
|-6----|-3----|-2-1-|
|-6----|-3----|-2-1-|


Solo
|------------------|-------------------------10----------------------10-------|
|-13b15---13b15~~~-|-10----10-------------------13p10-------------------13p10-|
|-12b14-x----------|----13----13p12p12-12h13----------13p12p10h12h13----------|
|-------x----------|----------------------------------------------------------|
|------------------|----------------------------------------------------------|
|------------------|----------------------------------------------------------|

|----------12b13~~~-10-12-------10-14-------10-|
|-------------------------13b15-------13b15----|
|-13p12p10-------------------------------------|
|----------------------------------------------|
|----------------------------------------------|
|----------------------------------------------|

|----------10-14p10----10-14p10-10h14p10----10-------------|
|-13b15~~~----------13-------------------13----13p10p13-10-|
|----------------------------------------------------------|
|----------------------------------------------------------|
|----------------------------------------------------------|
|----------------------------------------------------------|

                                w/Whammy Bar,,,,,,,|             ,,,,|
|----------------------------------------------------------------------|
|----10----------------------------------------------------------------|
|-13----13p12p10----12----10h11-(14)11-(14)11-(14)11-10h11p10----10h11-|
|----------------12----12-------------------------------------12-------|
|----------------------------------------------------------------------|
|----------------------------------------------------------------------|

  ,,,,,,,,,,|
|------------------------------------------------|
|-11----11----------11----11----11---------------|
|----11----11-10h11----11----11----11-10-11*(15)-|
|------------------------------------------------|
|------------------------------------------------|
|------------------------------------------------|
                                      *Gradually bend Wah-Wah Bar

    8va,,,,,,,,,,,,,,,,,,,,,,,,,,,,|
                       w/Wah-Wah Bar
|------|-13-15-16-17b20~~~~~~~~~~~~~-------|------------6-7-6-3-|
|-x-15-|-----------------------------5-3/5-|-3------------------|
|-x----|-----------------------------5-3/5-|-3------------------|
|-x----|-----------------------------------|---5p3-5~~~---------|
|------|-----------------------------------|--------------------|
|------|-----------------------------------|--------------------|

                 w/Whammy Bar       PH
|-----------------------------------------|---------------|
|-5-5h6p5p3-------------------------------|---------------|
|-----------4b5b4(9)(4)---------5b7-5b7b5-|-3-0h1/19p0h1/-|
|-----------------------------x-----------|---------------|
|-----------------------------x-----------|---------------|
|-----------------------------------------|---------------|

|-/2-------------------------------|------------------------------------|
|----------------------------------|------------------------------------|
|----0h1/12p0-1/12b15b12b15b12-x---|---12-------12-------12-------12----|
|------------------------------x-8/|12----12/11----11/12----12/11----11/|
|------------------------------x---|------------------------------------|
|----------------------------------|------------------------------------|

                     w/Whammy Bar
|--------------------------------------|---8------1-------14-------17----|
|--------------------------------------|-7---7/10---10/13----13/16----16/|
|---12----12----12b14~~~~~~~~~~~~/-----|---------------------------------|
|12----12----12--------------------12/-|---------------------------------|
|--------------------------------------|---------------------------------|
|--------------------------------------|---------------------------------|

|---20----20----20b23-|-PB(20)23b21----|
|19----19----20-------|-PB(20)22b20----|
|---------------------|-------------x/-|
|---------------------|-------------x/-|
|---------------------|-------------x/-|
|---------------------|----------------|

This solo is demanding break it up and learn part by part

Outro
    PM,,,,|          PM,,,,|
||------------------------------------||
||o----------------------------------o||
||------------------------------------||
||------------2/1-0------------2/1-0--||xTo Fade
||o-----------2/1-0------------2/1-0-o||
||--0--0--0---2/1-0--0--0--0---2/1-0--||
Related for Walk tab