Song name
# A B C D E F G H I J K L M N O P Q R S T U V W X Y Z

Pantera - Walk tab

PANTERA
WALK (Solo)

Tuning (D G C F A D)


Alot of tabs out there for this song are in Drop D, which is incorrect. Dimebag played 
this down a whole step.
I find in this tuning it gives it better sound and there's a little less stretching of 
your fingers on the neck.

Sounds best with the Bridge Pickup, a decent amount of reverb and some slight delay.

It's a pretty fast solo, but the licks are fairly easy. so I've tabbed it out lick by 
lick in order.



        V Bend this slow
d|--------------------------|
A|---15b17-------15b17~-----|
F|---14b16------------------|
C|--------------------------|
G|--------------------------|
D|--------------------------|

   This is played very fast -- play twice             Then
d|--------------------12---------------------------|-------14b16--14p12----------------|
A|--12--------------------15----12-----------------|---------------------15-12-15b17~--|
F|-----15-14-12-14-15---------------15-14-12-14-15-|-----------------------------------|
C|-------------------------------------------------|-----------------------------------|
G|-------------------------------------------------|-----------------------------------|
D|-------------------------------------------------|-----------------------------------|

                                           V Let this final bend ring out
d|--12tr16-------------------------------------------15-17-18-19b21-|
A|---------12tr15---------------------------------------------------|
F|----------------12tr14-13b~-13b~-13b~-13b15~~---------------------|
C|------------------------------------------------------------------|
G|------------------------------------------------------------------|
D|------------------------------------------------------------------|


d|---------------8h9p8p5----------------------------------|
A|---5b-------------------7h8p7p5-------------------------|
F|---5b---------------------------7~-7b7b7b-5~------------|
C|---------7p5h5------------------------------------------|
G|--------------------------------------------------------|
D|--------------------------------------------------------|

This is the part where Dimebag taps the 2nd fret and slides to the 14th alternating with 
each hand.
The last time you reach 14, I personally pick it and give it some vibrato
d|--------------------------------------------------------|
A|--------------------------------------------------------|
F|---2s14------2s14------2s14~----------------------------|
C|--------2s14------2s14----------------------------------|
G|--------------------------------------------------------|
D|--------------------------------------------------------|

d|-----------------|   |------------------------------------------|
A|-------10------9-|   |------10------9------10-9-10-9-10-9-10b~--|
F|---8h9-----7h8---|x3 |--8h9-----7h8----8h9----------------------|
C|-----------------|   |------------------------------------------|
G|-----------------|   |------------------------------------------|
D|-----------------|   |------------------------------------------|

d|-------10-----13-------16--------18-------22----22b24----| < pluck both strings and 
slowly release bend.
A|---0s9----9s12----12s15----15s17-----17s21------21b23----|
F|---------------------------------------------------------|
C|---------------------------------------------------------|
G|---------------------------------------------------------|
D|---------------------------------------------------------|

Hope this helps you all out. Any questions, feel free to message me on my UltimateGuitar profile.

R.I.P Dimebag
Tap to rate this tab
 
# A B C D E F G H I J K L M N O P Q R S T U V W X Y Z