Song name
# A B C D E F G H I J K L M N O P Q R S T U V W X Y Z

Pantera - Live In A Hole tab

Intro (quarter note triplets I think, 3 notes = 2 beats)
|--------------------|
|--------------------|
|--------------------|
|--------------------|
|--2--2--2--2--2--2--|
|--0--0--0--0--0--0--|  x 4


Fill 1
|-------------------|
|-------------------|
|-------------------|
|-2-----2-2-----2-2-|
|-1-2-2-1-1-2-2-1-1-|
|---0-0-----0-0-----|


Riff A (lead w/ wah)
|-------------------------------------| This riff into solo.
|-18-17-16----------------------------|
|----------15-14-13----------15-14-13-|
|-------------------15-14-13----------|
|-------------------------------------|
|-------------------------------------|
|                                     |
|                                     |
|Rhythm gtr (Drop D)                  |
|-------------------------------------|
|-------------------------------------|
|-------------------------------------|
|-10-9--8-----------------------------|
|-8--7--6--8--7--6--3--2--1--8--7--6--|
|----------8--7--6--3--2--1--8--7--6--|


Last time (lead gtr w/ talking wah)
Fill 2
|---------------------------------------------------------------|
|---------------------------------------------------------------|
|-10-9-8-------------------------10-9-8-------------------------|
|---------8-7-6---------8-7-6------------8-7-6------10-11-12--0-|
|----------------8-7-6------------------------------------------|
|---------------------------------------------------------------|
                                                              Ring

Riff B
|--------------|---------|
|--------------|---------|
|-----/ph.\----|---------|
|-8---5--------|-8---12--|
|-7-----6-7----|-7---11--|
|------------0-|---------|  x 2
 This bar x3


Hold E5 (vocals enter here)
|------|
|------|
|------|
|------|
|-2----|
|-0----|


Riff B x 1
Hold E5
Riff B x 1


Riff C
|-----------------|
|-----------------|
|-----------------|
|-11---8----------|
|-10-----9-10-----|
|-------------2-3-|  x 4
      "Things tend to drag me down..."

Intro riff again
Fill 1
Riff A x 4
Fill 2
Riff B x 2
E chord
Riff B
E chord ("Live in a hole, but...")
Riff B
Riff C x 4
Intro riff again
Fill 1


|------|
|------|
|------|
|------|
|-2----|
|-0----|
  Hold and drop off with tremolo bar

Riff C (w/wah)
|-------------------------|---------------------|
|-------------------------|-----------6---5---4-|
|-------------------------|-----------6---5---4-|
|-------------------------|-----------6---5---4-|
|-------------4--3--2-----|---------  4---3---2-|
|-2-----2--5--------------|-2----2--5-----------|
                                      wah wah wah
Riff C (cont.)
|-------------------------|---------------------|
|-------------------------|-----------6---5---4-|
|-------------------------|-----------6---5---4-|
|-------------3--2--1-----|-----------6---5---4-|
|-------------4--3--2-----|---------  4---3---2-|
|-2-----2--5--------------|-2----2--5-----------|
                                      wah wah wah
              Two gtrs.

Solo 1
Riff C again (dragging, slower)
Solo 2
Intro riff again
Fill 1
Riff A
Riff A (two steps lower)

Outro chords
|----------------------------------|
|----------------------------------|
|----------------------------------|
|----------------------------------|
|--6--2----5--2----3----2-------\--|
|--4--0----3--0----1----0-------\--|
Tap to rate this tab
# A B C D E F G H I J K L M N O P Q R S T U V W X Y Z