Song name
# A B C D E F G H I J K L M N O P Q R S T U V W X Y Z

Pantera - Strength Beyond Strength tab

PanterA
      
STRENGTH BEYOND STRENGTH                         

Tune guitars down 1/2 step

. - Palm Mute
h - Hammer-On
p - Pull-Off
~ - Let Ring
/ - Slide
b - Bend
r - Release
w\ - Whammy Bar Down
A.H. - Artificial Harmonic

e-----------------------|                                          ------------|
B-----------------------|                                                      |
G-----------------------|                                                      |
D-----------------------|                                                      |
A--7\6--6--6\5--5--5\4--|                                                      |
E--5\4--4--4\3--3--3\2--|                                                      |
                                                                               |
                                                                               |
e-------------------------------|                                              |
B-------------------------------|                                              |
G-2--2--------------------------|                                              |
D-2--2--------------------------|                                              |
A-0--0--3--3/7--7/11-11/7--7/3--|                                              |
E-------1--1/5--5/9---9/5--5/1--|                                              |
                                                                               |
                                                                               |
e-----------------------|                                                      |
B-----------------------|                                                      |
G-----------------------|                                                      |
D-----------------------|                                                      |
A--7\6--6--6\5--5--5\4--|                                                      |
E--5\4--4--4\3--3--3\2--|                                                      |
                                                                               |
                                                                               |     
e---------------------------------|                                            |
B---------------------------------|                                            |
G---------------------------------|                                            |
D---------------------------------|                                            |
A--4\7--7/3--3/7--7/11-11/7--7/3--|                                            | Play
E--2\5--5/1--1/5--5/9---9/5--5/1--|                                            |  2X
                                                                               |
                                                                               |
e-----------------------|                                                      |
B-----------------------|                                                      |
G-----------------------|                                                      |   
D-----------------------|                                                      |
A--7-8-8--7-8-8--7-8-8--|                                                      |
E--5-6-6--5-6-6--5-6-6--|                                                      |
                                                                               |
                                                                               |
e-------------------------------------------------------------------------|    |
B-------------------------------------------------------------------------|    |
G-------------------------------------------------------------------------|    |
D-------------------------------------------------------------------------|    |
A--4-4-4-3-------------------------6-6-6-3--------------------------------|    |
E--2-2-2-1--1-1-1-1-1-1-1-1-1-1----4-4-4-1-1-1-1-1-1-1-1------------------|    |
            . . . . . . . . . .            . . . . . . .                       |
                                                                               |
                                                                               |
e--------------------------------------------------------------------------|   |
B--------------------------------------------------------------------------|   |
G--------------------------------------------------------------------------|   |
D--------------------------------------------------------------------------|   |
A--------4-----6--3-----4-4-4-3-----------------------6-6-6-3--------------|   |
E--3--6-----4-----------2-2-2-1--1-1-1-1-1-1-1-1-1-1--4-4-4-1--1-1-1-1-1-1-|   |
                                 . . . . . . . . . .           . . . . . .     |
                                                                               |
                                                                               |
e-------------------|                                                          |
B-------------------|                                                          |
G-------------------|                                                          |
D-------------------|                                                          | 
A-2-2-2-2-----------|                                                          |
E-0-0-0-0-----------|                                              ------------|
  . . . .


e---------------------------------------|
B---------------------------------------|
G---------------------------------------|
D---------------------------------------|  play 7x
A---------------------------------------|
E-0h1-1--0h1-1--0h1--2p1-1-1--2p1-1-1---|

e--------------------|
B--------------------|
G--------------------|
D--------------------|
A--------------------|
E-0h1-1--0h1-1--0h1--|

e-----------------------|
B-----------------------|
G-----------------------|
D-----------------------|
A--7\6--6--6\5--5--5\4--|
E--5\4--4--4\3--3--3\2--|

e-------------------------------------------------------------------------|
B-------------------------------------------------------------------------|
G-------------------------------------------------------------------------|
D-------------------------------------------------------------------------|
A--4-4-4-3-------------------------6-6-6-3--------------------------------|
E--2-2-2-1--1-1-1-1-1-1-1-1-1-1----4-4-4-1-1-1-1-1-1-1-1------------------|
            . . . . . . . . . .            . . . . . . .                   


e--------------------------------------------------------------------------|
B--------------------------------------------------------------------------|
G--------------------------------------------------------------------------|
D--------------------------------------------------------------------------|
A--------4-----6--3-----4-4-4-3-----------------------6-6-6-3--------------|
E--3--6-----4-----------2-2-2-1--1-1-1-1-1-1-1-1-1-1--4-4-4-1--1-1-1-1-1-1-|
                                 . . . . . . . . . .           . . . . . .  

e-------------------|
B-------------------|
G-------------------|
D-------------------|
A-2-2-2-2----------|
E-0-0-0-0----------|
  . . . .


e---------------------------|                     e--------------|
B---------------------------|                     B--------------|
G---------------------------| Play 23X Then Play  G--12~~~~~-----|
D---------------------------|                     D-----------3~~|
A---4--2--4-----4--5~-------|                     A-----------3~~|
E---2--0--2-----2--3~-------|                     E-----------1~~|
                                                     A.H.    w\




    
e--------------------|                    e------|
B--------------------|                    B------|
G--------------------|                    G------|
D--3~------3/4~------| Play 8X Then Play  D--3~~-|
A--3~------3/4~------|                    A--3~~-|
E--1~------1/2~------|                    E--1~~-|
                                           w\  


Solo

Use Harmonizer Through Entire Solo


e--------------------------------------------------------------------------------|
B------------------------------------------------------------------4-------------|
G-----------------4br-------------------------------------------------5~~~~~~~~--|
D----6~~~~~~~-5-6----------------------------------------------/5----------------|
A-----------------------6~~~~~~~~~~~~~~~~~~~--6~~~~~~~~~--5-6--------------------|
E--------------------------------------------------------------------------------|
                                                                     w\


e-------------------------------------------------------------------------|
B-------------------------------------------------------------------------|
G--/11~~--10~~-----------------------/12~~--11~~--------------------------|
D---------------11~~--10~~------------------------12~~--11~~--------------|
A---------------------------10-9-10---------------------------11--10--11--|
E-------------------------------------------------------------------------|


e-----------------------------------------------------------------------|
B--------------------------------------------------------8b--6-----11b--|
G----/13--12-----------------/13-12----------------7--------------------|
D-------------13--12-----------------13-12------------6---------9-------|
A---------------------11-12-----------------11-12-----------------------|
E-----------------------------------------------------------------------|


e-------------------------11-13p12--13-16p13p12--16p15--16--19p16p15-19b--|
B------------12-13-12-13--------------------------------------------------|
G--13-12-13---------------------------------------------------------------|
D-------------------------------------------------------------------------|
A-------------------------------------------------------------------------|
E-------------------------------------------------------------------------|


e-----------------------------|                    e-------------------------|
B-----------------------------|                    B-------------------------|
G-----------------------------|                    G-------------------------|
D-3--3--3--3/4~---------------| Play 5X Then Play  D-3--3--3--3--------------|
A-3--3--3--3/4~---------------|                    A-3--3--3--3--------------|
E-1--1--1--1/2~---------------|                    E-1--1--1--1--------------| 
                                                     .  .  .  . 


e---------------------------------------|
B---------------------------------------|
G---------------------------------------|
D---------------------------------------|  play 3x
A---------------------------------------|
E-0h1-1--0h1-1--0h1--2p1-1-1--2p1-1-1---|


e-----------------------------------|
B-----------------------------------|
G-----------------------------------|
D-----------------------------------|
A-------------------7/6-6-6/5-5-5/4-|
E-0h1-1--0h1-1--0h1-5/4-4-4/3-3-3/2-|


e-------------------------------------------------------------------------|
B-------------------------------------------------------------------------|
G-------------------------------------------------------------------------|
D-------------------------------------------------------------------------|
A--4-4-4-3-------------------------6-6-6-3--------------------------------|
E--2-2-2-1--1-1-1-1-1-1-1-1-1-1----4-4-4-1-1-1-1-1-1-1-1------------------|
            . . . . . . . . . .            . . . . . . .                   


e--------------------------------------------------------------------------|
B--------------------------------------------------------------------------|
G--------------------------------------------------------------------------|
D--------------------------------------------------------------------------|
A--------4-----6--3-----4-4-4-3-----------------------6-6-6-3--------------|
E--3--6-----4-----------2-2-2-1--1-1-1-1-1-1-1-1-1-1--4-4-4-1--1-1-1-1-1-1-|
                                 . . . . . . . . . .           . . . . . .  


e-----------------------|
B-----------------------|
G-----------------------|
D-----------------------|
A--7\6--6--6\5--5--5\4--|
E--5\4--4--4\3--3--3\2--|


e-------------------------------------------------------------------------|
B-------------------------------------------------------------------------|
G-------------------------------------------------------------------------|
D-------------------------------------------------------------------------|
A--4-4-4-3-------------------------6-6-6-3--------------------------------|
E--2-2-2-1--1-1-1-1-1-1-1-1-1-1----4-4-4-1-1-1-1-1-1-1-1------------------|
            . . . . . . . . . .            . . . . . . .                   


e--------------------------------------------------------------------------|
B--------------------------------------------------------------------------|
G--------------------------------------------------------------------------|
D--------------------------------------------------------------------------|
A--------4-----6--3-----4-4-4-3-----------------------6-6-6-3--------------|
E--3--6-----4-----------2-2-2-1--1-1-1-1-1-1-1-1-1-1--4-4-4-1--1-1-1-1-1-1-|
                                 . . . . . . . . . .           . . . . . .  


e--------------------|
B--------------------|
G--------------------|
D--------------------|
A--2-2-2-2--2-2-2-2--|
E--0-0-0-0--0-0-0-0--|
   . . . .  . . . .

I Worked My Ass Off On This Tab. Enjoy It

"Forever Stronger Than All" 
Tap to rate this tab
# A B C D E F G H I J K L M N O P Q R S T U V W X Y Z