Song name
# A B C D E F G H I J K L M N O P Q R S T U V W X Y Z

Papa Roach - Crash tab

Papa Roach - Crash

Album - The Paramoir Sessions

Tuning - Drop D

Intro
Q=158
 4/4
  Gtr I
  D5
  PM------------------------------------------------------------------|
  E E E E E E E E   E E E E E E E E   E E E E E E E E   E E E E E E E E
|-----------------|-----------------|-----------------|-----------------|
|-----------------|-----------------|-----------------|-----------------|
|-----------------|-----------------|-----------------|-----------------|
|-----------------|-----------------|-----------------|-----------------|
|-0-0-0-0-0-0-0-0-|-0-0-0-0-0-0-0-0-|-0-0-0-0-0-0-0-0-|-0-0-0-0-0-0-0-0-|
|-0-0-0-0-0-0-0-0-|-0-0-0-0-0-0-0-0-|-0-0-0-0-0-0-0-0-|-0-0-0-0-0-0-0-0-|


  Bb5                                 A5                        F5
  PM------------------------------------------------------------------|
  E E E E E E E E   E E E E E E E E   E E E E E E E E   E E E E E E E E
|-----------------|-----------------|-----------------|-----------------|
|-----------------|-----------------|-----------------|-----------------|
|-----------------|-----------------|-----------------|-----------------|
|-----------------|-----------------|-----------------|-----------------|
|-8-8-8-8-8-8-8-8-|-8-8-8-8-8-8-8-8-|-7-7-7-7-7-7-7-7-|-7-7-7-7-3-3-3-3-|
|-8-8-8-8-8-8-8-8-|-8-8-8-8-8-8-8-8-|-7-7-7-7-7-7-7-7-|-7-7-7-7-3-3-3-3-|


  D5
  PM------------------------------------------------------------------|
  E E E E E E E E   E E E E E E E E   E E E E E E E E   E E E E E E E E
|-----------------|-----------------|-----------------|-----------------|
|-----------------|-----------------|-----------------|-----------------|
|-----------------|-----------------|-----------------|-----------------|
|-----------------|-----------------|-----------------|-----------------|
|-0-0-0-0-0-0-0-0-|-0-0-0-0-0-0-0-0-|-0-0-0-0-0-0-0-0-|-0-0-0-0-0-0-0-0-|
|-0-0-0-0-0-0-0-0-|-0-0-0-0-0-0-0-0-|-0-0-0-0-0-0-0-0-|-0-0-0-0-0-0-0-0-|


  Bb5                                 A5
  PM------------------------------------------------------------------|
  E E E E E E E E   E E E E E E E E   E E E E E E E E   E E E E E E E E
|-----------------|-----------------|-----------------|-----------------|
|-----------------|-----------------|-----------------|-----------------|
|-----------------|-----------------|-----------------|-----------------|
|-----------------|-----------------|-----------------|-----------------|
|-8-8-8-8-8-8-8-8-|-8-8-8-8-8-8-8-8-|-7-7-7-7-7-7-7-7-|-7-7-7-7-7-7-7-7-|
|-8-8-8-8-8-8-8-8-|-8-8-8-8-8-8-8-8-|-7-7-7-7-7-7-7-7-|-7-7-7-7-7-7-7-7-|


  D5
  E E E  E Q   Q    Q   Q  Q   Q    E E E  E Q   Q    Q   Q  Q   Q
|-----------------|---------------|-----------------|---------------|
|-----------------|---------------|-----------------|---------------|
|-------10----10--|----10-----10--|-------10----10--|----10-----10--|
|-0-0-0----0------|-0------0------|-0-0-0----0------|-0------0------|
|-0-0-0--8-0---8--|-0---8--0---8--|-0-0-0--8-0---8--|-0---8--0---8--|
|-0-0-0----0------|-0------0------|-0-0-0----0------|-0------0------|


 Pre-Chorus
  Bb5                                 A5                 A5         F5
  E E E E E E E E   E E E E E E E E    E E E E E E E E     E  E E E E E E E
|-----------------|-----------------|------------------|--------------------|
|-----------------|-----------------|------------------|--------------------|
|-----------------|-----------------|------------------|--------------------|
|-8-8-8-8-8-8-8-8-|-8-8-8-8-8-8-8-8-|--7-7-7-7-7-7-7-7-|---7--7-7-7-3-3-3-3-|
|-8-8-8-8-8-8-8-8-|-8-8-8-8-8-8-8-8-|--7-7-7-7-7-7-7-7-|---7--7-7-7-3-3-3-3-|
|-8-8-8-8-8-8-8-8-|-8-8-8-8-8-8-8-8-|--7-7-7-7-7-7-7-7-|---7--7-7-7-3-3-3-3-|
|
| Gtr II
| W                 H       H          W                  +H        H
|-----------------|-----------------|------------------|--------------------|
|-----------------|---------8-------|-10---------------|-(10)---------------|
|-----------------|-----------------|------------------|------------5-------|
|-----------------|---------5-------|--7---------------|--(7)---------------|
|-----------------|-----------------|------------------|------------3-------|
|-----------------|-----------------|------------------|--------------------|


 Chorus
  D5      C5        Bb5               F5                A5
  E E E E E E E E   E E E E E E E E   E E E E E E E E   E E E E E E E E
|-----------------|-----------------|-----------------|-----------------|
|-----------------|-----------------|-----------------|-----------------|
|-7-7-7-7-5-5-5-5-|-3-3-3-3-3-3-3-3-|-5-5-5-5-5-5-5-5-|-9-9-9-9-9-9-9-9-|
|-7-7-7-7-5-5-5-5-|-3-3-3-3-3-3-3-3-|-3-3-3-3-3-3-3-3-|-7-7-7-7-7-7-7-7-|
|-5-5-5-5-3-3-3-3-|-1-1-1-1-1-1-1-1-|-3-3-3-3-3-3-3-3-|-7-7-7-7-7-7-7-7-|
|-----------------|-----------------|-3-3-3-3-3-3-3-3-|-7-7-7-7-7-7-7-7-|


  D5      C5        Bb5               F5                C5            D5
  E E E E E E E E   E E E E E E E E   E E E E E E E E   E E E E E E E E
|-----------------|-----------------|-----------------|-----------------|
|-----------------|-----------------|-----------------|-----------------|
|-7-7-7-7-5-5-5-5-|-3-3-3-3-3-3-3-3-|-5-5-5-5-5-5-5-5-|-5-5-5-5-5-5-5---|
|-7-7-7-7-5-5-5-5-|-3-3-3-3-3-3-3-3-|-3-3-3-3-3-3-3-3-|-5-5-5-5-5-5-5-0-|
|-5-5-5-5-3-3-3-3-|-1-1-1-1-1-1-1-1-|-3-3-3-3-3-3-3-3-|-3-3-3-3-3-3-3-0-|
|-----------------|-----------------|-3-3-3-3-3-3-3-3-|---------------0-|


 Verse
  D5
  PM------------------------------------------------------------------|
  E E E E E E E E   E E E E E E E E   E E E E E E E E   E E E E E E E E
|-----------------|-----------------|-----------------|-----------------|
|-----------------|-----------------|-----------------|-----------------|
|-----------------|-----------------|-----------------|-----------------|
|-----------------|-----------------|-----------------|-----------------|
|-0-0-0-0-0-0-0-0-|-0-0-0-0-0-0-0-0-|-0-0-0-0-0-0-0-0-|-0-0-0-0-0-0-0-0-|
|-0-0-0-0-0-0-0-0-|-0-0-0-0-0-0-0-0-|-0-0-0-0-0-0-0-0-|-0-0-0-0-0-0-0-0-|


  Bb5                                 A5                        F5
  PM----------------------------------------------------------|
  E E E E E E E E   E E E E E E E E   E E E E E E E E   E E E E E E E E
|-----------------|-----------------|-----------------|-----------------|
|-----------------|-----------------|-----------------|-----------------|
|-----------------|-----------------|-----------------|---------5-5-5-5-|
|-----------------|-----------------|-----------------|---------3-3-3-3-|
|-8-8-8-8-8-8-8-8-|-8-8-8-8-8-8-8-8-|-7-7-7-7-7-7-7-7-|-7-7-7-7-3-3-3-3-|
|-8-8-8-8-8-8-8-8-|-8-8-8-8-8-8-8-8-|-7-7-7-7-7-7-7-7-|-7-7-7-7-3-3-3-3-|


  D5
  PM------------------------------------------------------------------|
  E E E E E E E E   E E E E E E E E   E E E E E E E E   E E E E E E E E
|-----------------|-----------------|-----------------|-----------------|
|-----------------|-----------------|-----------------|-----------------|
|-----------------|-----------------|-----------------|-----------------|
|-----------------|-----------------|-----------------|-----------------|
|-0-0-0-0-0-0-0-0-|-0-0-0-0-0-0-0-0-|-0-0-0-0-0-0-0-0-|-0-0-0-0-0-0-0-0-|
|-0-0-0-0-0-0-0-0-|-0-0-0-0-0-0-0-0-|-0-0-0-0-0-0-0-0-|-0-0-0-0-0-0-0-0-|


  Bb5                                 A5
  PM------------------------------------------------------------------|
  E E E E E E E E   E E E E E E E E   E E E E E E E E   E E E E E E E E
|-----------------|-----------------|-----------------|-----------------|
|-----------------|-----------------|-----------------|-----------------|
|-----------------|-----------------|-----------------|-----------------|
|-----------------|-----------------|-----------------|-----------------|
|-8-8-8-8-8-8-8-8-|-8-8-8-8-8-8-8-8-|-7-7-7-7-7-7-7-7-|-7-7-7-7-7-7-7-7-|
|-8-8-8-8-8-8-8-8-|-8-8-8-8-8-8-8-8-|-7-7-7-7-7-7-7-7-|-7-7-7-7-7-7-7-7-|


  D5
  E E E  E Q   Q    Q   Q  Q   Q    E E E  E Q   Q    Q   Q  Q   Q
|-----------------|---------------|-----------------|---------------|
|-----------------|---------------|-----------------|---------------|
|-------10----10--|----10-----10--|-------10----10--|----10-----10--|
|-0-0-0----0------|-0------0------|-0-0-0----0------|-0------0------|
|-0-0-0--8-0---8--|-0---8--0---8--|-0-0-0--8-0---8--|-0---8--0---8--|
|-0-0-0----0------|-0------0------|-0-0-0----0------|-0------0------|


 Pre-Chorus
  Bb5                                 A5                            F5
  E E E E E E E E   E E E E E E E E    E E E E E E E E     E  E E E E E E E
|-----------------|-----------------|------------------|--------------------|
|-----------------|-----------------|------------------|--------------------|
|-----------------|-----------------|------------------|--------------------|
|-8-8-8-8-8-8-8-8-|-8-8-8-8-8-8-8-8-|--7-7-7-7-7-7-7-7-|---7--7-7-7-3-3-3-3-|
|-8-8-8-8-8-8-8-8-|-8-8-8-8-8-8-8-8-|--7-7-7-7-7-7-7-7-|---7--7-7-7-3-3-3-3-|
|-8-8-8-8-8-8-8-8-|-8-8-8-8-8-8-8-8-|--7-7-7-7-7-7-7-7-|---7--7-7-7-3-3-3-3-|
|
| Gtr II
| W                 H       H          W                  +H        H
|-----------------|-----------------|------------------|--------------------|
|-----------------|---------8-------|-10---------------|-(10)---------------|
|-----------------|-----------------|------------------|------------5-------|
|-----------------|---------5-------|--7---------------|--(7)---------------|
|-----------------|-----------------|------------------|------------3-------|
|-----------------|-----------------|------------------|--------------------|


   Chorus
    D5      C5        Bb5               F5                A5
    E E E E E E E E   E E E E E E E E   E E E E E E E E   E E E E E E E E
||------------------|-----------------|-----------------|------------------|
||o-----------------|-----------------|-----------------|------------------|
||--7-7-7-7-5-5-5-5-|-3-3-3-3-3-3-3-3-|-5-5-5-5-5-5-5-5-|-9-9-9-9-9-9-9-9--|
||--7-7-7-7-5-5-5-5-|-3-3-3-3-3-3-3-3-|-3-3-3-3-3-3-3-3-|-7-7-7-7-7-7-7-7--|
||o-5-5-5-5-3-3-3-3-|-1-1-1-1-1-1-1-1-|-3-3-3-3-3-3-3-3-|-7-7-7-7-7-7-7-7--|
||------------------|-----------------|-3-3-3-3-3-3-3-3-|-7-7-7-7-7-7-7-7--|


  D5      C5        Bb5               F5                C5            D5
  E E E E E E E E   E E E E E E E E   E E E E E E E E   E E E E E E E E
|-----------------|-----------------|-----------------|------------------||
|-----------------|-----------------|-----------------|-----------------o||
|-7-7-7-7-5-5-5-5-|-3-3-3-3-3-3-3-3-|-5-5-5-5-5-5-5-5-|-5-5-5-5-5-5-5----||
|-7-7-7-7-5-5-5-5-|-3-3-3-3-3-3-3-3-|-3-3-3-3-3-3-3-3-|-5-5-5-5-5-5-5-0--||
|-5-5-5-5-3-3-3-3-|-1-1-1-1-1-1-1-1-|-3-3-3-3-3-3-3-3-|-3-3-3-3-3-3-3-0-o||
|-----------------|-----------------|-3-3-3-3-3-3-3-3-|---------------0--||


 Bridge
  D5
    PM-----------------------------------------------------------------------|
    E E E E E E E E     E E E E E E E E     E E E E E E E E    E E E E E E E E
|-------------------|-------------------|-------------------|------------------|
|-------------------|-------------------|-------------------|------------------|
|-------------------|-------------------|-------------------|------------------|
|-------------------|-------------------|-------------------|------------------|
|---0-0-0-0-0-0-0-0-|---0-0-0-0-0-0-0-0-|---0-0-0-0-0-0-0-0-|--0-0-0-0-0-0-0-0-|
|---0-0-0-0-0-0-0-0-|---0-0-0-0-0-0-0-0-|---0-0-0-0-0-0-0-0-|--0-0-0-0-0-0-0-0-|
|
| Gtr III
|   ~~~~~~~~~~~~~~~~~~~~~~~~~~~~~~~~~~~~~~~~~~~~~~~~~~~~~~~~~~~~~
|   W                   W                   W                  W
|-------------------|-------------------|-------------------|------------------|
|-------------------|-------------------|-------------------|------------------|
|-------------------|-------------------|-------------------|------------------|
|-/12---------------|-/14---------------|-/15---------------|-17---------------|
|-------------------|-------------------|-------------------|------------------|
|-------------------|-------------------|-------------------|------------------|


  Bb5                                     A5                           F5
    PM-----------------------------------------------------------------------|
    E E E E E E E E     E E E E E E E E     E E E E E E E E    E E E E E E E E
|-------------------|-------------------|-------------------|------------------|
|-------------------|-------------------|-------------------|------------------|
|-------------------|-------------------|-------------------|------------------|
|-------------------|-------------------|-------------------|------------------|
|---8-8-8-8-8-8-8-8-|---8-8-8-8-8-8-8-8-|---7-7-7-7-7-7-7-7-|--7-7-7-7-3-3-3-3-|
|---8-8-8-8-8-8-8-8-|---8-8-8-8-8-8-8-8-|---7-7-7-7-7-7-7-7-|--7-7-7-7-3-3-3-3-|
|
|   ~~~~~~~~~~~~~~~~~~~~~~~~~~~~~~~~~~~~~~~~~~~~~~~~~~~~~~~~~~~~~
|   W                   W                   W                  W
|-------------------|-------------------|-------------------|------------------|
|-------------------|-------------------|-------------------|------------------|
|-/19---------------|-/17---------------|-/15---------------|-14---------------|
|-------------------|-------------------|-------------------|------------------|
|-------------------|-------------------|-------------------|------------------|
|-------------------|-------------------|-------------------|------------------|


 Verse
  D5
  PM------------------------------------------------------------------|
  E E E E E E E E   E E E E E E E E   E E E E E E E E   E E E E E E E E
|-----------------|-----------------|-----------------|-----------------|
|-----------------|-----------------|-----------------|-----------------|
|-----------------|-----------------|-----------------|-----------------|
|-----------------|-----------------|-----------------|-----------------|
|-0-0-0-0-0-0-0-0-|-0-0-0-0-0-0-0-0-|-0-0-0-0-0-0-0-0-|-0-0-0-0-0-0-0-0-|
|-0-0-0-0-0-0-0-0-|-0-0-0-0-0-0-0-0-|-0-0-0-0-0-0-0-0-|-0-0-0-0-0-0-0-0-|


  Bb5                                 A5
  PM----------------------------------------------------|
  E E E E E E E E   E E E E E E E E   E E E E E E E E   Q   H.        W
|-----------------|-----------------|-----------------|-------------|------|
|-----------------|-----------------|-----------------|-------------|------|
|-----------------|-----------------|-----------------|-------------|------|
|-----------------|-----------------|-----------------|-------------|------|
|-8-8-8-8-8-8-8-8-|-8-8-8-8-8-8-8-8-|-7-7-7-7-7-7-7-7-|-7\----------|------|
|-8-8-8-8-8-8-8-8-|-8-8-8-8-8-8-8-8-|-7-7-7-7-7-7-7-7-|-7\----------|------|


  D5
  E E E  E Q   Q    Q   Q  Q   Q    E E E  E Q   Q    Q   Q  Q   Q
|-----------------|---------------|-----------------|---------------|
|-----------------|---------------|-----------------|---------------|
|-------10----10--|----10-----10--|-------10----10--|----10-----10--|
|-0-0-0----0------|-0------0------|-0-0-0----0------|-0------0------|
|-0-0-0--8-0---8--|-0---8--0---8--|-0-0-0--8-0---8--|-0---8--0---8--|
|-0-0-0----0------|-0------0------|-0-0-0----0------|-0------0------|


 Pre-Chorus
  Bb5
  E E E E E E E E   E E E E E E E E
|-----------------|-----------------|
|-----------------|-----------------|
|-----------------|-----------------|
|-8-8-8-8-8-8-8-8-|-8-8-8-8-8-8-8-8-|
|-8-8-8-8-8-8-8-8-|-8-8-8-8-8-8-8-8-|
|-8-8-8-8-8-8-8-8-|-8-8-8-8-8-8-8-8-|
|
| Gtr II
| W                 H       H
|-----------------|-----------------|
|-----------------|---------8-------|
|-----------------|-----------------|
|-----------------|---------5-------|
|-----------------|-----------------|
|-----------------|-----------------|


  A5                 C5
   E E E E E E E E    E  E  E  E  E  E  E  E
|------------------|-------------------------|
|------------------|-------------------------|
|------------------|-------------------------|
|--7-7-7-7-7-7-7-7-|-10-10-10-10-10-10-10-10-|
|--7-7-7-7-7-7-7-7-|-10-10-10-10-10-10-10-10-|
|--7-7-7-7-7-7-7-7-|-10-10-10-10-10-10-10-10-|
|
|  W                  W
|------------------|-------------------------|
|-10---------------|-------------------------|
|------------------|-------------------------|
|--7---------------|-------------------------|
|------------------|-------------------------|
|------------------|-------------------------|


 Chorus
  D5      C5        Bb5               F5                A5
  E E E E E E E E   E E E E E E E E   E E E E E E E E   E E E E E E E E
|-----------------|-----------------|-----------------|-----------------|
|-----------------|-----------------|-----------------|-----------------|
|-7-7-7-7-5-5-5-5-|-3-3-3-3-3-3-3-3-|-5-5-5-5-5-5-5-5-|-9-9-9-9-9-9-9-9-|
|-7-7-7-7-5-5-5-5-|-3-3-3-3-3-3-3-3-|-3-3-3-3-3-3-3-3-|-7-7-7-7-7-7-7-7-|
|-5-5-5-5-3-3-3-3-|-1-1-1-1-1-1-1-1-|-3-3-3-3-3-3-3-3-|-7-7-7-7-7-7-7-7-|
|-----------------|-----------------|-3-3-3-3-3-3-3-3-|-7-7-7-7-7-7-7-7-|


  D5      C5        Bb5               F5                C5            D5
  E E E E E E E E   E E E E E E E E   E E E E E E E E   E E E E E E E E
|-----------------|-----------------|-----------------|-----------------|
|-----------------|-----------------|-----------------|-----------------|
|-7-7-7-7-5-5-5-5-|-3-3-3-3-3-3-3-3-|-5-5-5-5-5-5-5-5-|-5-5-5-5-5-5-5---|
|-7-7-7-7-5-5-5-5-|-3-3-3-3-3-3-3-3-|-3-3-3-3-3-3-3-3-|-5-5-5-5-5-5-5-0-|
|-5-5-5-5-3-3-3-3-|-1-1-1-1-1-1-1-1-|-3-3-3-3-3-3-3-3-|-3-3-3-3-3-3-3-0-|
|-----------------|-----------------|-3-3-3-3-3-3-3-3-|---------------0-|


  D5         C5           Bb5
    E E  E E   E E  E E     E E  E E   E E  E E
|-----------------------|-----------------------|
|-----------------------|-----------------------|
|---7-7--7-7---5-5--5-5-|---3-3--3-3---3-3--3-3-|
|---7-7--7-7---5-5--5-5-|---3-3--3-3---3-3--3-3-|
|---5-5--5-5---3-3--3-3-|---1-1--1-1---1-1--1-1-|
|-----------------------|-----------------------|
|
| Gtr IV
|   Q    Q     Q    Q       Q    Q     Q    Q
|-/22---10---/22---10---|-/22---10---/22---10---|
|-----------------------|-----------------------|
|-----------------------|-----------------------|
|-----------------------|-----------------------|
|-----------------------|-----------------------|
|-----------------------|-----------------------|


  F5                      A5
    E E  E E   E E  E E     E E  E E   E E  E E
|-----------------------|-----------------------|
|-----------------------|-----------------------|
|---5-5--5-5---5-5--5-5-|---9-9--9-9---9-9--9-9-|
|---3-3--3-3---3-3--3-3-|---7-7--7-7---7-7--7-7-|
|---3-3--3-3---3-3--3-3-|---7-7--7-7---7-7--7-7-|
|---3-3--3-3---3-3--3-3-|---7-7--7-7---7-7--7-7-|
|
|   Q    Q     Q    Q       Q    Q     Q    Q
|-/22---10---/22---10---|-/22---10---/22---10---|
|-----------------------|-----------------------|
|-----------------------|-----------------------|
|-----------------------|-----------------------|
|-----------------------|-----------------------|
|-----------------------|-----------------------|


  D5         C5           Bb5
    E E  E E   E E  E E     E E  E E   E E  E E
|-----------------------|-----------------------|
|-----------------------|-----------------------|
|---7-7--7-7---5-5--5-5-|---3-3--3-3---3-3--3-3-|
|---7-7--7-7---5-5--5-5-|---3-3--3-3---3-3--3-3-|
|---5-5--5-5---3-3--3-3-|---1-1--1-1---1-1--1-1-|
|-----------------------|-----------------------|
|
|   Q    Q     Q    Q       Q    Q     Q    Q
|-/22---10---/22---10---|-/22---10---/22---10---|
|-----------------------|-----------------------|
|-----------------------|-----------------------|
|-----------------------|-----------------------|
|-----------------------|-----------------------|
|-----------------------|-----------------------|


  F5                      C5                  D5
    E E  E E   E E  E E     E E  E E   E E  E E
|-----------------------|-----------------------|
|-----------------------|-----------------------|
|---5-5--5-5---5-5--5-5-|---5-5--5-5---5-5--5---|
|---3-3--3-3---3-3--3-3-|---5-5--5-5---5-5--5-0-|
|---3-3--3-3---3-3--3-3-|---3-3--3-3---3-3--3-0-|
|---3-3--3-3---3-3--3-3-|---------------------0-|
|
|   Q    Q     Q    Q       Q    Q     Q    Q
|-/22---10---/22---10---|-/22---10---/22---10---|
|-----------------------|-----------------------|
|-----------------------|-----------------------|
|-----------------------|-----------------------|
|-----------------------|-----------------------|
|-----------------------|-----------------------|


 Outro
  D5
  E E E  E Q   Q    Q   Q  Q   Q    E E E  E Q   Q    Q   Q  Q   Q
|-----------------|---------------|-----------------|---------------|
|-----------------|---------------|-----------------|---------------|
|-------10----10--|----10-----10--|-------10----10--|----10-----10--|
|-0-0-0----0------|-0------0------|-0-0-0----0------|-0------0------|
|-0-0-0--8-0---8--|-0---8--0---8--|-0-0-0--8-0---8--|-0---8--0---8--|
|-0-0-0----0------|-0------0------|-0-0-0----0------|-0------0------|


  E E E  E Q   Q       Q   Q     Q   Q
|--------------------|---------------------|
|--------------------|---------------------|
|-------10----11b12--|----12b13-----13b14--|
|-0-0-0----0---------|-0---------0---------|
|-0-0-0--8-0---9b10--|-0--10b11--0--11b12--|
|-0-0-0----0---------|-0---------0---------|


  E E E  E Q   Q       Q   Q     Q   Q
|--------------------|---------------------|
|--------------------|---------------------|
|-------10----11b12--|----12b13-----13b14--|
|-0-0-0----0---------|-0---------0---------|
|-0-0-0--8-0---9b10--|-0--10b11--0--11b12--|
|-0-0-0----0---------|-0---------0---------|


  E E E  E Q   Q       Q   Q     Q   Q
|--------------------|---------------------|
|--------------------|---------------------|
|-------10----11b12--|----12b13-----13b14--|
|-0-0-0----0---------|-0---------0---------|
|-0-0-0--8-0---9b10--|-0--10b11--0--11b12--|
|-0-0-0----0---------|-0---------0---------|


  E E E  E Q   Q       Q   Q     Q   Q
|--------------------|---------------------*|
|--------------------|---------------------*|
|-------10----11b12--|----12b13-----13b14--*|
|-0-0-0----0---------|-0---------0---------*|
|-0-0-0--8-0---9b10--|-0--10b11--0--11b12--*|
|-0-0-0----0---------|-0---------0---------*|
--------------------------------------------------------------------------------
Tablature Legend
----------------
 h   - hammer-on
 p   - pull-off
 b   - bend
 pb  - pre-bend
 r   - bend release (if no number after the r, then release immediately)
 /\  - slide into or out of (from/to "nowhere")
 s   - legato slide
 S   - shift slide
 - natural harmonic
[n]  - artificial harmonic
n(n) - tapped harmonic
 ~   - vibrato
 tr  - trill
 T   - tap
 TP  - trem. picking
 PM  - palm muting
\n/  - tremolo bar dip; n = amount to dip
 \n  - tremolo bar down
 n/  - tremolo bar up
/n\  - tremolo bar inverted dip
 =   - hold bend; also acts as connecting device for hammers/pulls
 <> - volume swell (louder/softer)
 x   - on rhythm slash represents muted slash
 o   - on rhythm slash represents single note slash
Tap to rate this tab
 
# A B C D E F G H I J K L M N O P Q R S T U V W X Y Z