Song name
# A B C D E F G H I J K L M N O P Q R S T U V W X Y Z

Paper Mache - Dear Jonas Acoustic tab

-------------------------------------------------------------------------------
                             DEAR JONAS ACOUSTIC - Paper Mache
-------------------------------------------------------------------------------
Tabbed by:AnonymousAJ
E-mail:ajgunning710@yahoo.com

Song can be found at: http://www.purevolume.com/papermachemusic
Band's official site: https://www.facebook.com/pages/Paper-Mache/28553025818

Tuning:Standard

Intro/Verse
E|-----------2----5--0---------2--------2---------------------------------|
B|-----3-----3--------------------3--------3------------3--------3--------|
G|--------2--------------------------0--------0------------0--------0-----|
D|--0------------------------------------------------------------------0--|
A|----------------0--0----0/2---------------------------------------------|
E|-----------------------------------------------0h2/3--------3-----------|


Pre-Chorus
E|----------------------------0--------0-------------2--------2-------------------------------|
B|-----3--------3----------------3--------3-------------3--------3----------3--------3--------|
G|--------0--------0----------------0--------0-------------0--------0----------0--------0-----|
D|--------------------------------------------------------------------------------------------|
A|-------------------------0----------------------2-------------------------------------------|
E|--3--------3--------3--------------------------------------------------3--------3--------3--|


Chorus
E|--0--0--2--0--|
B|--3--2--3--3--|
G|--------------|
D|--------0-----|
A|--2--0-----2--|
E|--------------|


Bridge (Listen to the song to figure out the strumming pattern)
E|--0--0--3--0--|
B|--3--0--3--2--|
G|--0--0--0--2--|
D|--0--2--0--2--|
A|--2--2--2--0--|
E|--0--0--3--0--|


Outro
E|--------------------------|
B|-----3-----------3--------|
G|-----0-----0-----0-----0--|
D|-----------0-----------0--|
A|--------0-----------0-----|
E|--3-----------3-----------|


Intro/Verse x4
Pre-Chorus x4
Chorus x 2
Intro/Verse x4
Pre-Chorus x4
Chorus x2
Bridge x2
Chorus x2
Outro x2 (end on E)

***Does not contain every minor variation

************************************

| /   slide up
| \   slide down
| h   hammer-on
| p   pull-off
| ~   vibrato
| +   harmonic
| x   Mute note
| b   Bend
| pb  Pre-bend
| br  Bend release
| pbr Pre-bend release
| brb Bend release bend
Tap to rate this tab
# A B C D E F G H I J K L M N O P Q R S T U V W X Y Z