Song name
# A B C D E F G H I J K L M N O P Q R S T U V W X Y Z

Papers Please - Main Theme tab

Main melody
4/4
played by distorted guitar or bass

Intro
Play 2x times

e|----------------------------------------------------------------------------------------|
B|----------------------------------------------------------------------------------------|
G|----------------------------------------------------------------------------------------|
D|----------------------------------------------------------------------------------------|
A|---------------------------------------------------------------------------8---------8--|
E|----10----5----10----5----10----5----10----5----10----5----10----5----8---------8-------|


e|----------------------------------|
B|----------------------------------|
G|----------------------------------|
D|----------------------------------|
A|------8---------8-----------------|
E|-8---------8----------------------|

Verse
Play 2x times
e|----------------------------------------------------------------------------------------|
B|----------------------------------------------------------------------------------------|
G|----------------------------------------------------------------------------------------|
D|----------------------------------------------------------------------------------------|
A|----------------------------------------------------------------------------------------|
E|----10----5----10----5----12----5----12----5----13----5----13----5----6----3----9----5--|

Outro
Play 2x times

e|--------------------------------------------------------|
B|--------------------------------------------------------|
G|----7----7-10----7----7-10----9----9-12----9----9-12----|
D|--------------------------------------------------------|
A|----5----5-8-----5----5-8-----7----7-10----9----9-12--|
E|--------------------------------------------------------|

e|----------------------------------------------------------------------------------------|
B|----------------------------------------------------------------------------------------|
G|--10---10-14----10----10-14----3----3-7----6----6-9-------------------------------------|
D|----------------------------------------------------------------------------------------|
A|--8----8--12----8-----10-14----1----1-5----4----4-7-------------------------------------|
E|----------------------------------------------------------------------------------------|

By Rklauzs
Tap to rate this tab
# A B C D E F G H I J K L M N O P Q R S T U V W X Y Z