Song name
# A B C D E F G H I J K L M N O P Q R S T U V W X Y Z

Paradise Fears - Lullaby tab

-------------------------------------------------------------------------------
                                                      Lullaby - Paradise Fears
-------------------------------------------------------------------------------
Tabbed by: gaffers1996
E-mail: gaffers1996@gmail.com

Tuning: Standard (EADGBE)


  Em     Cadd9     G     Dsus4    Em'     D#'      D'     C#m'     C'      D
e|-3-|  e|-3-|  e|-3-|  e|-3-|  e|-7-|  e|-6-|  e|-5-|  e|-4-|  e|-3-|  e|-2-|
B|-3-|  B|-3-|  B|-3-|  B|-3-|  B|-8-|  B|-8-|  B|-7-|  B|-5-|  B|-5-|  B|-3-|
G|-0-|  G|-0-|  G|-0-|  G|-2-|  G|-9-|  G|-8-|  G|-7-|  G|-6-|  G|-5-|  G|-2-|
D|-2-|  D|-2-|  D|-0-|  D|-0-|  D|-9-|  D|-8-|  D|-7-|  D|-6-|  D|-5-|  D|-0-|
A|-2-|  A|-3-|  A|-2-|  A|-0-|  A|-7-|  A|-6-|  A|-5-|  A|-4-|  A|-3-|  A|-x-|
E|-0-|  E|-x-|  E|-3-|  E|-2-|  E|-x-|  E|-x-|  E|-x-|  E|-x-|  E|-x-|  E|-x-|


Intro

e|-------------------------|
B|----3-----0-----0--------|
G|--0-----2-----0-------0--|
D|---2-----0-----2----0----|
A|-3-----------3-------0---|
E|-------3-----------2-----|

Verse

e|-------------------------------------------------|
B|----3-----0-----3-----------3-----0--------------|
G|--0-----2-----0-------0---0-----2-------0-----2--|
D|---2-----0-----2----0------2-----0----0-----0----|
A|-3-----------3-------0---3-------------0-----0---|
E|-------3-----------2-----------3-----2-----2-----|

Pre-Chorus

e|-------------------------------------------------|
B|----3-----0-----3-----------3-----0--------------|
G|--0-----2-----0-------0---0-----2-------0--------|
D|---2-----0-----2----0------2-----0----0----------|
A|-3-----------3-------0---3-------------0---------|
E|-------3-----------2-----------3-----2-----------|

Chorus
                  Cadd9      G
     I'll stay up all night, staring at the sky,
            Cadd9    Dsus4
     You're somewhere on the other side
Cadd9                    G            Em             Dsus4        
     If you're sleeping alone tonight, let me be your lullaby.
          Cadd9     G
     Girl, I've got stars in my eyes,
          Cadd9     Dsus4
     Cause you look better by my side.
Cadd9                    G            Em             Dsus4
     If you're sleeping alone tonight, let me be your lullaby.

Bridge
Em'          D#'                 D'
  A different night, a different day
            C#m'            C'
  Pretty soon it's all the same,
            D
  Being without you.


Intro
Verse
Pre-Chorus
Chorus (Gtr.2 plays Verse)
Intro
Verse
Pre-Chorus
Chorus (Gtr.2 plays Verse)
1/2 Chorus
Bridge
Pre-Chorus
1/2 Chorus Pause
Chorus (Gtr.2 plays Verse)
Pre-Chorus
Tap to rate this tab
 
# A B C D E F G H I J K L M N O P Q R S T U V W X Y Z