Song name
# A B C D E F G H I J K L M N O P Q R S T U V W X Y Z

Paramore - All I Wanted tab

by Francis
09283150081
SHC Lucena
f_sario@yahoo.com

tuning- Drop C#

Intro-2x
GtrI
|-----------------|-----------------|----------------|-----------------|
|-----------------|-----------------|----------------|-----------------|
|---------0-------|----------0------|--------0-------|---------0-------|
|-----1-----1---1-|------0-----0--0-|----5-----5---5-|-----5-----5---5-|
|-----------------|-----------------|-3-3--3-----3---|-5-5---5-----5---|
|-1-1---1-----1---|--5-5---5----5---|----------------|-----------------|

GtrII

|-------------------------------------------------------------------|
|--------------------8----------------------------------------------|
|-8-----8--7------------10-----8-----8--7---------------------------|
|-------------8---------------------------8-------------------------|
|----------------------------------------------8/10--8/10--8--/10~--|
|-------------------------------------------------------------------|
Verse-
|-----------------|-----------------|----------------|-----------------|
|-----------------|-----------------|----------------|-----------------|
|---------0-------|----------0------|--------0-------|---------0-------|
|-----1-----1---1-|------0-----0--0-|----5-----5---5-|-----5-----5---5-|
|-----------------|-----------------|-3-3--3-----3---|-5-5---5-----5---|
|-1-1---1-----1---|--5-5---5----5---|----------------|-----------------|

|-----------------|-----------------|----------------|------------------|
|-----------------|-----------------|----------------|------------------|
|---------0-------|----------0------|--------0-------|-----0---0--------|
|-----1-----1---1-|------0-----0--0-|----5-----5---5-|-------0-------3--|
|-----------------|-----------------|-3-3--3-----3---|-5-5-------1-1--1-|
|-1-1---1-----1---|--5-5---5----5---|----------------|------------------|

Verse2-(0:27)
|-----------------|-----------------|----------------|-----------------|
|-----------------|-----------------|----------------|-----------------|
|---------0-------|----------0------|--------0-------|---------0-------|
|-----1-----1---1-|------0-----0--0-|----5-----5---5-|-----5-----5---5-|2x
|-----------------|-----------------|-3-3--3-----3---|-5-5---5-----5---|
|-1-1---1-----1---|--5-5---5----5---|----------------|-----------------|

GtrII
|-------------------------------------------------------------------|
|--------------------8----------------------------------------------|
|-8-----8--7------------10-----8-----8--7---------------------------|
|-------------8---------------------------8-------------------------|
|----------------------------------------------8/10--8/10--8--/10~--|
|-------------------------------------------------------------------|

Chorus1-
GtrI (not sure)
|-----------------|-----------------|----------------|-----------------|
|-----------------|-----------------|----------------|-----------------|
|---------0-------|----------0------|--------0-------|---------0-------|
|-----1-----1---1-|------0-----0--0-|----5-----5---5-|-----5-----5---5-|2x
|-----------------|-----------------|-3-3--3-----3---|-5-5---5-----5---|
|-1-1---1-----1---|--5-5---5----5---|----------------|-----------------|

GtrII
|-----------------------------------------------------------------|
|-----------------------------------------------------------------|
|-----------------------------------------------------------------|
|---------------------8-----------------------------8-------------|
|-8/10--8/10--8/10--8----10-8---8/10--8/10--8/10--8----10-8-------|
|-----------------------------------------------------------------|
Interlude-
GtrI
|-------------------------------------------------------------------------|
|-------------------------------------------------------------------------|
|-------------------------------------------------------------------------|
|-1-1-1-1--5-5-5-5--5-5-5-5--7-7-7-7--1-1-1-1--5-5-5-5--5-5-5-5--7-7-7-7--|2x
|-1-1-1-1--5-5-5-5--3-3-3-3--5-5-5-5--1-1-1-1--5-5-5-5--3-3-3-3--5-5-5-5--|
|-1-1-1-1--5-5-5-5--------------------1-1-1-1--5-5-5-5--------------------|

GtrII
|-------------------------------------------------------------------|
|-------------------------------------------------------------------|
|-10/12--10/12--10-12---10/15-12-10-----------8~--------------------|
|-------------------------------------4x----------------------------|
|--8/10---8/10---8/10----8/13-10-8------------6~--------------------|
|-------------------------------------------------------------------|

Do Verse2-2x
|-----------------|-----------------|----------------|-----------------|
|-----------------|-----------------|----------------|-----------------|
|---------0-------|----------0------|--------0-------|---------0-------|
|-----1-----1---1-|------0-----0--0-|----5-----5---5-|-----5-----5---5-|2x
|-----------------|-----------------|-3-3--3-----3---|-5-5---5-----5---|
|-1-1---1-----1---|--5-5---5----5---|----------------|-----------------|

GtrII
|-------------------------------------------------------------------|
|--------------------8----------------------------------------------|
|-------8--7------------10-----8-----8--7---------------------------|
|-------------8---------------------------8-------------------------|
|----------------------------------------------8/10--8/10--8--/10~--|
|-------------------------------------------------------------------|

|-------------------------------------------------------------------|
|--------------------8----------------------------------------------|
|-------8--7------------10-----8-----8--7---------------------------|
|-------------8---------------------------8-------------------------|
|----------------------------------------------8/10-----------------|
|-------------------------------------------------------------------|
Chorus-
GtrI
|-------------------------------------------------------------------------|
|-------------------------------------------------------------------------|
|-------------------------------------------------------------------------|
|-1-1-1-1--5-5-5-5--5-5-5-5--7-7-7-7--1-1-1-1--5-5-5-5--5-5-5-5--7-7-7-7--|2x
|-1-1-1-1--5-5-5-5--3-3-3-3--5-5-5-5--1-1-1-1--5-5-5-5--3-3-3-3--5-5-5-5--|
|-1-1-1-1--5-5-5-5--------------------1-1-1-1--5-5-5-5--------------------|

GtrII
|----------------------------------|-----------------------------------|
|----------------------------------|-----------------------------------|
|-10/12--10/12--10-12--10/15-12-10-|-10/12--10/12--10-12--10/15-12-10--|
|----------------------------------|-----------------------------------|
|--8/10---8/10---8/10---8/13-10-8--|--8/10----8/10---8/10--8/13-10-8---|
|----------------------------------|-----------------------------------|

|----------------------------------|-----------------------------------|
|----------------------------------|-----------------------------------|
|-10/12--10/12--10-12--10/15-12-10-|-10/12--12~------10/---------------|
|----------------------------------|-----------------------------------|
|--8/10---8/10---8/10---8/13-10-8--|--8/10~-10~------8/----------------|
|----------------------------------|-----------------------------------|

|----------------------------------|-----------------------------------|
|----------------------------------|-----------------------------------|
|-10/12--10/12--10-12--10/15-12-10-|-10/12--10/12--10-12--10/15-12-10--|
|----------------------------------|-----------------------------------|2x
|--8/10---8/10---8/10---8/13-10-8--|--8/10----8/10---8/10--8/13-10-8---|
|----------------------------------|-----------------------------------|
Interlude-

GtrI
|-------------------------------------------------------------------|
|-------------------------------------------------------------------|
|-------------------------------------------------------------------|
|------------------------------------5-5-5-5-5-5-5-5-7-7-7-7-7-7-7--|2x
|-1-1-1-1-1-1-1-1--5-5-5-5-5-5-5-5---3-3-3-3-3-3-3-3-5-5-5-5-5-5-5--|
|-1-1-1-1-1-1-1-1--5-5-5-5-5-5-5-5----------------------------------|

GtrII
|--------------------------------|-----------------------------------|
|--------------------------------|-----------------------------------|
|-8~---7~---8-7~--10~------12~---|---8~---7~---8-7~--10~-(10)^-------|
|--------------------------------|-----------------------------------|
|--------------------------------|-----------------------------------|
|--------------------------------|-----------------------------------|


Verse3-
GtrI(palm muted)
|-------------------------------------------------------------------|
|-------------------------------------------------------------------|
|-------------------------------------------------------------------|
|-----------------------------------5-5-5-5-5-5-5-5-7-7-7-7-7-7-7-7-|4X
|-1-1-1-1-1-1-1-1--3-3-3-3-3-3-3-3--3-3-3-3-3-3-3-3-5-5-5-5-5-5-5-5-|
|-1-1-1-1-1-1-1-1--3-3-3-3-3-3-3-3----------------------------------|
GtrII
|--------------------------------------------------------|
|------------------------------8888----------------------|
|-88888888-8888-7777----------------10101010-------------|(palm muted)
|---------------------88888888---------------------------|
|--------------------------------------------------------|
|--------------------------------------------------------|

|--------------------------------------------------------|
|--------------------------------------------------------|
|-88888888-8888-7777-------------------------------------|
|---------------------88888888--8-1010-8-1010-8-1010-88--|(palm muted)
|--------------------------------------------------------|
|--------------------------------------------------------|

|-11----11----10----10----11----11----13----13-----------|
|--------------------------------------------------------|
|----12----12----12----12----12----12----12----12--------|
|--------------------------------------------------------|2X
|--------------------------------------------------------|
|--------------------------------------------------------|

cHORUS-
2:40-solo vocals

then @ 2;46

GtrI

|-----------------------------------------------------------------------------|
|-----------------------------------------------------------------------------|
|-----------------------------------------------------------------------------|
|-0---1-1-1-1--5-5-5-5--5-5-5-5--7-7-7-7--1-1-1-1--5-5-5-5--5-5-5-5--7-7-7-7--|3x
|-0---1-1-1-1--5-5-5-5--3-3-3-3--5-5-5-5--1-1-1-1--5-5-5-5--3-3-3-3--5-5-5-5--|
|-0---1-1-1-1--5-5-5-5--------------------1-1-1-1--5-5-5-5--------------------|

|-------------------------------------------------------------------------|
|-------------------------------------------------------------------------|
|-------------------------------------------------------------------------|
|-1-1-1-1--5-5-5-5--5-5-5-5--7-7-7-7--1-1-1-1--5-5-5-5--5-5-5-5--7-7-7-7--|3x
|-1-1-1-1--5-5-5-5--3-3-3-3--5-5-5-5--1-1-1-1--5-5-5-5--3-3-3-3--5-5-5-5--|
|-1-1-1-1--5-5-5-5--------------------1-1-1-1--5-5-5-5--------------------|

GtrII
|---------------------------------------|-----------------------------------|
|---------------------------------------|-----------------------------------|
|-12~--10/12--10/12--10-12--10/15-12-10-|-10/12--10/12--10-12--10/15-12-10--|
|---------------------------------------|-----------------------------------|
|-10~---8/10---8/10---8/10---8/13-10-8--|--8/10----8/10---8/10--8/13-10-8---|
|---------------------------------------|-----------------------------------|

|----------------------------------|-----------------------------------|
|----------------------------------|-----------------------------------|
|-10/12--10/12--10-12--10/15-12-10-|-10/12--12~---88-88~--88--8888~----|
|----------------------------------|-----------------------------------|
|--8/10---8/10---8/10---8/13-10-8--|--8/10~-10~---66-66~--66--6666~----|
|----------------------------------|-----------------------------------|

|----------------------------------|-----------------------------------|
|----------------------------------|-----------------------------------|
|-10/12--10/12--10-12--10/15-12-10-|-10/12--10/12--10-12--10/15-12-10--|
|----------------------------------|-----------------------------------|
|--8/10---8/10---8/10---8/13-10-8--|--8/10----8/10--8/10---8/13-10-8---|
|----------------------------------|-----------------------------------|

|----------------------------------|-----------------------------------|
|----------------------------------|-----------------------------------|
|-10/12--10/12--10-12--10/15-12-10-|-10/12--10/12--10-12--10/15-12-10--|
|----------------------------------|-----------------------------------|
|--8/10---8/10---8/10---8/13-10-8--|--8/10----8/10--8/10---8/13-10-8---|
|----------------------------------|-----------------------------------|


END WITH 
GtrI
----|
----|
----|
-1~-|
-1~-|
-1~-|

GtrII
----|
----|
-8~-|
----|
-6~-|
----|
.
Tap to rate this tab
# A B C D E F G H I J K L M N O P Q R S T U V W X Y Z