Song name
# A B C D E F G H I J K L M N O P Q R S T U V W X Y Z

Paramore - Escape Route tab

Artist:	Paramore
Song:	Escape Route
Type:	Guitar Tab
Part:	whole song
Tuning:	C# G# C# F# A# D#
Difficulty:	intermediate
Transcribed by Francis Twister sario

Escape Route By Paramore

Tuning- Drop C#

Intro

|-----------------------------------|-----------------------------------|
|-----------------------------------|-----------------------------------|
|-----------------------------------|-----------------------------------|
|-----7---0------11--------12/------|------7---0------11----------------|
|-----------------------------------|---------------------------12/-----|
|-4-4---5----7-7-----7/9------------|--4-4---5----7-7-----7/9-----------|
|
|-----------------------------------|-----------------------------------|
|-----------------------------------|-----------------------------------|
|-----------------------------------|-----------------------------------|
|-----------------------------------|-----------------------------------|
|-----------------------------------|-----------------------------------|
|-----------------------------------|-----------------------------------|

|-----------------------------------|-----------------------------------|
|-----------------------------------|-----------------------------------|
|-----------------------------------|-----------------------------------|
|-----7---0------11--------12/------|------7---0------11----------------|
|-----------------------------------|-----------------------------------|
|-4-4---5----7-7-----7/9------------|--4-4---5----7-7-----7-------------|
|
|-----------------------------------|-----------------------------------|
|-----------------------------------|-----------------------------------|
|-----------------------------------|-----------------------------------|
|-----------------------------------|-----------------------------------|
|-----------------------------------|-----------------------------------|
|-----------------------------------|-----------------------------------|

Drumbeats

|-----------------------------------|-----------------------------------|
|-----------------------------------|-----------------------------------|
|-----------------------------------|-----------------------------------|
|-----7---0------11--------12/------|------7---0------11----------------|
                        
                    
Tap to rate this tab
 
# A B C D E F G H I J K L M N O P Q R S T U V W X Y Z