Song name
# A B C D E F G H I J K L M N O P Q R S T U V W X Y Z

Paramore - Here We Go Again Acoustic tab

Song: Here We Go Again acoustic(the one on the bus).
Artist: Paramore.

The tuning is Drop D(DADGBe).


Intro.

e|--------------------------------|
B|--------------------------------|
G|-16-16-11-13-9-9-8-8-9--9/8/9---|
D|-x--x--x--x--x-x-x-x-x--x-x-x---|
A|-14-14-9--11-7-7-6-6-7--7/6/7---|
D|--------------------------------|

e|--------------------------------|
B|--------------------------------|
G|-16-16-11-13-9-9-8-8---4-4/6--6-|
D|-x--x--x--x--x-x-x-x---x-x-x--x-|
A|-14-14-9--11-7-7-6-6---2-2/4--4-|
D|--------------------------------|

Verse

e|--------------------------------|
B|--------------------------------|
G|-9-9-9-9--9--9--9--9------------| 
D|-9-9-9-9--x--x--x--x------------|  x4
A|-7-7-7-7--11-11-11-11-----------|  
D|----------11-11-11-11-----------|
play the last part the 4th time bit faster. 

Chorus

e|------------------------------------------------------|
B|------------------------------------------------------|
G|-9999999999999999-9-9-9-9-9-9-9-9---8-8-8/9-9-9-9-9---|
D|-9999999999999999-x-x-x-x-x-x-x-x---6-6-6/7-7-7-7-7---| x4
A|-7777777777777777-1111111111111111--6-6-6/7-7-7-7-7---|
D|-7777777777777777-1111111111111111--------------------|

Then play: 

  Intro x2
  Verse 
  Intro x2
  Chorus 

That's pretty much the whole song. Enjoy :)

Orhon.

| /  slide up

===============================================================================
Tap to rate this tab
# A B C D E F G H I J K L M N O P Q R S T U V W X Y Z