Song name
# A B C D E F G H I J K L M N O P Q R S T U V W X Y Z

Paramore - Where The Lines Overlap Acoustic tab

Well It's Me Again, Reggae V. Aguilar Of San Pedro Laguna, this is my second Tab for 
which is the guitar Tab for the acoustic chords of the song "Where the Lines Overlap".
Please Rate!
for comments and suggestions---
email: halfbloodlineprince@yahoo.com

Tuning: Drop D

Intro: Legend: X = Dead String / = Slide

e--------00000000-/-0-0-|-00000000-/-0-0----|
B--------00000000-/-0-0-|-00000000-/-0-0----|
G-xxxxxx-11111111-/-6-8-|-11111111-/-6-8----|
D-xxxxxx-22222222-/-7-9-|-22222222-/-7-9----|
A-xxxxxx-22222222-/-7-9-|-22222222-/-7-9----|
D-xxxxxx-22222222-/-7-9-|-22222222-/-7-9----|

Verse:

e-00000000-/-0-0-|-00000000-/-0-0----|
B-00000000-/-0-0-|-00000000-/-0-0----|
G-11111111-/-6-8-|-11111111-/-6-8----|
D-22222222-/-7-9-|-22222222-/-7-9----|
A-22222222-/-7-9-|-22222222-/-7-9----|
D-22222222-/-7-9-|-22222222-/-7-9----|

Give me attention
I need it now

e-0------0---0--|
B-0------0---0--|
G-9---9--9---8--|
D-11--9--11--9--|
E-11--7--11--9--|
D-11-----11--9--|

Too much distance
To measure it out (out loud)

e-00000000-/-0-0-|-00000000-/-0-0----|
B-00000000-/-0-0-|-00000000-/-0-0----|
G-11111111-/-6-8-|-11111111-/-6-8----|
D-22222222-/-7-9-|-22222222-/-7-9----|
A-22222222-/-7-9-|-22222222-/-7-9----|
D-22222222-/-7-9-|-22222222-/-7-9----|
Tracing patterns across a personal map

e-0------0---0--0--|
B-0------0---0--0--|
G-9---9--9---8--6--|
D-11--9--11--9--7--|
E-11--7--11--9--7--|
D-11-----11--9--7--|
Making pictures where the lines overlap
Where the lines overlap

Chorus:


e-00000000---00000000--|
B-00000000---00000000--|
G-11111111---66666666--| 2X
D-22222222---77777777--|
A-22222222---77777777--|
D-22222222---77777777--|


No one is as lucky as us
We're not at the end but, oh, we already won

e-0---0--0--0---|
B-0---0--0--0---|
G-9---6--1--8---| 2X
D-11--7--2--9---|
A-11--7--2--9---|
D-11--7--2--9---|

Oh no, no one is as lucky as us
Is as lucky as us

Verse:

e-00000000-/-0-0-|-00000000-/-0-0----|
B-00000000-/-0-0-|-00000000-/-0-0----|
G-11111111-/-6-8-|-11111111-/-6-8----|
D-22222222-/-7-9-|-22222222-/-7-9----|
A-22222222-/-7-9-|-22222222-/-7-9----|
D-22222222-/-7-9-|-22222222-/-7-9----|

Call me over
and Tell me how

e-0------0---0--|
B-0------0---0--|
G-9---9--9---8--|
D-11--9--11--9--|
E-11--7--11--9--|
D-11-----11--9--|

you got so far
Never making a single sound

e-00000000-/-0-0-|-00000000-/-0-0----|
B-00000000-/-0-0-|-00000000-/-0-0----|
G-11111111-/-6-8-|-11111111-/-6-8----|
D-22222222-/-7-9-|-22222222-/-7-9----|
A-22222222-/-7-9-|-22222222-/-7-9----|
D-22222222-/-7-9-|-22222222-/-7-9----|

I'm not used to it
But I can learn

e-0------0---0--0--0--0--|
B-0------0---0--0--0--0--|
G-9---9--9---8--6--6--8--|
D-11--9--11--9--7--7--9--|
E-11--7--11--9--7--7--9--|
D-11-----11--9--7--7--9--|

There's nothing to it
I've never been happier
Never been happier

Chorus:


e-00000000---00000000--|
B-00000000---00000000--|
G-11111111---66666666--| 2X
D-22222222---77777777--|
A-22222222---77777777--|
D-22222222---77777777--|


No one is as lucky as us
We're not at the end but, oh, we already won

e-0---0--0--0---|
B-0---0--0--0---|
G-9---6--1--8---| 2X
D-11--7--2--9---|
A-11--7--2--9---|
D-11--7--2--9---|

Oh no, no one is as lucky as us
Is as lucky as us

Bridge: . = Palm Mute (First 2X)
  ...........
e-0------0--0--|
B-0------0--0--|
G-9---9--1--6--| 2X
D-11--9--2--7--|
A-11--7--2--7--|
D-11-----2--7--|

Now I've got a feeling if I sang this loud enough
You would sing it back to me
I've got a feeling if I sang this loud enough
You would sing it back to me

e-0------0--0--0------|
B-0------0--0--0------|
G-9---9--1--6--9---9--|
D-11--9--2--7--11--9--|
A-11--7--2--7--11--7--|
D-11-----2--7--11-----|

I've got a feeling
I've got a feeling
That you would sing it back to me
You would sing it back to me

Chorus:

e-00000000---00000000--|
B-00000000---00000000--|
G-11111111---66666666--| 2X
D-22222222---77777777--|
A-22222222---77777777--|
D-22222222---77777777--|

No one is as lucky as us
We're not at the end but, oh, we've already won

e-0---0--0--0---|
B-0---0--0--0---|
G-9---6--1--8---| 2X
D-11--7--2--9---|
A-11--7--2--9---|
D-11--7--2--9---|

Oh no, no one is as lucky as us
Is as lucky as us
Is as lucky as us

Outro:

e-00000000---00000000--|
B-00000000---00000000--|
G-11111111---66666666--| 4X
D-22222222---77777777--|
A-22222222---77777777--|
D-22222222---77777777--|

wo oh oh...

e--0--|
B--0--|
G--1--|
D--2--|
A--2--|
D--2--|
Tap to rate this tab
# A B C D E F G H I J K L M N O P Q R S T U V W X Y Z