Song name
# A B C D E F G H I J K L M N O P Q R S T U V W X Y Z

Paranmaum - Boku No Migite tab

boku no migite


paranmaoun


TRANSCRIBED BY RUDY GUZMAN


guzman_84@hotmail.com




                                               
e:-2--------------2----------------3--------------0---------------|
B:-3--------------2----------------3--------------2---------------|
G:-2--------------2----------------0--------------2---------------|
D:-0--------------4----------------0--------------2---------------|
A:-0--------------4----------------2--------------0---------------|
E:----------------2----------------3------------------------------|


e:-2-2-2-2-2-2-2--2-2-2-2-2-2-2-2--3-3-3-3-3-3-3--0-0-0-0-0-0-0-0--2-2-2-2-2-2-2-|
B:-3-3-3-3-3-3-3--2-2-2-2-2-2-2-2--3-3-3-3-3-3-3--2-2-2-2-2-2-2-2--3-3-3-3-3-3-3-|
G:-2-2-2-2-2-2-2--2-2-2-2-2-2-2-2--0-0-0-0-0-0-0--2-2-2-2-2-2-2-2--2-2-2-2-2-2-2-|
D:-0-0-0-0-0-0-0--4-4-4-4-4-4-4-4--0-0-0-0-0-0-0--2-2-2-2-2-2-2-2--0-0-0-0-0-0-0-|
A:----------------4-4-4-4-4-4-4-4--2-2-2-2-2-2-2--0-0-0-0-0-0-0-0----------------|
E:----------------2-2-2-2-2-2-2-2--3-3-3-3-3-3-3---------------------------------|

  verse     
e:-2-2-2-2-2-2-2--2-2-2-2-2-2-2-2--3-3-3-3-3-3-3--0-0-0-0-0-0-0-0-|
B:-3-3-3-3-3-3-3--2-2-2-2-2-2-2-2--3-3-3-3-3-3-3--2-2-2-2-2-2-2-2-|
G:-2-2-2-2-2-2-2--2-2-2-2-2-2-2-2--0-0-0-0-0-0-0--2-2-2-2-2-2-2-2-|
D:-0-0-0-0-0-0-0--4-4-4-4-4-4-4-4--0-0-0-0-0-0-0--2-2-2-2-2-2-2-2-|
A:----------------4-4-4-4-4-4-4-4--2-2-2-2-2-2-2--0-0-0-0-0-0-0-0-|
E:----------------2-2-2-2-2-2-2-2--3-3-3-3-3-3-3------------------|
                                                                   
e:-2-2-2-2-2-2-2--2-2-2-2-2-2-2-2--3-3-3-3-3-3-3--0-0-0-0-0-0-0-0--2-2-2-2-2-2-2-|
B:-3-3-3-3-3-3-3--2-2-2-2-2-2-2-2--3-3-3-3-3-3-3--2-2-2-2-2-2-2-2--3-3-3-3-3-3-3-|
G:-2-2-2-2-2-2-2--2-2-2-2-2-2-2-2--0-0-0-0-0-0-0--2-2-2-2-2-2-2-2--2-2-2-2-2-2-2-|
D:-0-0-0-0-0-0-0--4-4-4-4-4-4-4-4--0-0-0-0-0-0-0--2-2-2-2-2-2-2-2--0-0-0-0-0-0-0-|
A:----------------4-4-4-4-4-4-4-4--2-2-2-2-2-2-2--0-0-0-0-0-0-0-0----------------|
E:----------------2-2-2-2-2-2-2-2--3-3-3-3-3-3-3---------------------------------|

e:-2-2-2-2-2-2-2--2-2-2-2-2-2-2-2--3-3-3-3-3-3-3--0-0-0-0-0-0-0-0-|
B:-3-3-3-3-3-3-3--2-2-2-2-2-2-2-2--3-3-3-3-3-3-3--2-2-2-2-2-2-2-2-|
G:-2-2-2-2-2-2-2--2-2-2-2-2-2-2-2--0-0-0-0-0-0-0--2-2-2-2-2-2-2-2-|
D:-0-0-0-0-0-0-0--4-4-4-4-4-4-4-4--0-0-0-0-0-0-0--2-2-2-2-2-2-2-2-|
A:----------------4-4-4-4-4-4-4-4--2-2-2-2-2-2-2--0-0-0-0-0-0-0-0-|
E:----------------2-2-2-2-2-2-2-2--3-3-3-3-3-3-3------------------|
                                                                   
e:-2-2-2-2-2-2-2--2-2-2-2-2-2-2-2--3-3-3-3-3-3-3--0-0-0-0-0-0-0-0--2-2-2-2-2-2-2-|
B:-3-3-3-3-3-3-3--2-2-2-2-2-2-2-2--3-3-3-3-3-3-3--2-2-2-2-2-2-2-2--3-3-3-3-3-3-3-|
G:-2-2-2-2-2-2-2--2-2-2-2-2-2-2-2--0-0-0-0-0-0-0--2-2-2-2-2-2-2-2--2-2-2-2-2-2-2-|
D:-0-0-0-0-0-0-0--4-4-4-4-4-4-4-4--0-0-0-0-0-0-0--2-2-2-2-2-2-2-2--0-0-0-0-0-0-0-|
A:----------------4-4-4-4-4-4-4-4--2-2-2-2-2-2-2--0-0-0-0-0-0-0-0----------------|
E:----------------2-2-2-2-2-2-2-2--3-3-3-3-3-3-3---------------------------------|

   mita koto mo...
e:-3----------0----------2-----------2---|
B:-3----------2----------2-----------3---|
G:-0----------2----------2-----------2---|
D:-0----------2----------4-----------0---|
A:-2----------0----------4---------------|
E:-3---------------------2---------------|

e:-3----------0--------2--2--2-2-2-|
B:-3----------2--------3--3--3-3-3-|
G:-0----------2--------2--2--2-2-2-|
D:-0----------2--------0--0--0-0-0-|
A:-2----------0--------------------|
E:-3-------------------------------|

   jirita koto mo...                                                                 dakara
e:-3-3-3-3-3-3-3--0-0-0-0-0-0-0-0--2-2-2-2-2-2-2-2--2-2-2-2-2-2-2-2--3-3-3-3-3-3-3-3-----|
B:-3-3-3-3-3-3-3--2-2-2-2-2-2-2-2--2-2-2-2-2-2-2-2--3-3-3-3-3-3-3-3--3-3-3-3-3-3-3-3--2--|
G:-0-0-0-0-0-0-0--2-2-2-2-2-2-2-2--2-2-2-2-2-2-2-2--4-4-4-4-4-4-4-4--0-0-0-0-0-0-0-0--2--|
D:-0-0-0-0-0-0-0--2-2-2-2-2-2-2-2--4-4-4-4-4-4-4-4--4-4-4-4-4-4-4-4--0-0-0-0-0-0-0-0--2--|
A:-2-2-2-2-2-2-2--0-0-0-0-0-0-0-0--4-4-4-4-4-4-4-4--2-2-2-2-2-2-2-2--2-2-2-2-2-2-2-2--0--|
E:-3-3-3-3-3-3-3-------------------2-2-2-2-2-2-2-2-------------------3-3-3-3-3-3-3-3-----|

   boku no migite o shirimazen ka 
e:-2-2-2-2-2-2-2--2-2-2-2-2-2-2-2--3-3-3-3-3-3-3--0-0-0-0-0-0-0-0--2-2-2-2-2-2-2-|
B:-3-3-3-3-3-3-3--2-2-2-2-2-2-2-2--3-3-3-3-3-3-3--2-2-2-2-2-2-2-2--3-3-3-3-3-3-3-|
G:-2-2-2-2-2-2-2--2-2-2-2-2-2-2-2--0-0-0-0-0-0-0--2-2-2-2-2-2-2-2--2-2-2-2-2-2-2-|
D:-0-0-0-0-0-0-0--4-4-4-4-4-4-4-4--0-0-0-0-0-0-0--2-2-2-2-2-2-2-2--0-0-0-0-0-0-0-|
A:----------------4-4-4-4-4-4-4-4--2-2-2-2-2-2-2--0-0-0-0-0-0-0-0----------------|
E:----------------2-2-2-2-2-2-2-2--3-3-3-3-3-3-3---------------------------------|

   verse                                                                
e:-2-2-2-2-2-2-2--2-2-2-2-2-2-2-2--3-3-3-3-3-3-3--0-0-0-0-0-0-0-0-|
B:-3-3-3-3-3-3-3--2-2-2-2-2-2-2-2--3-3-3-3-3-3-3--2-2-2-2-2-2-2-2-|
G:-2-2-2-2-2-2-2--2-2-2-2-2-2-2-2--0-0-0-0-0-0-0--2-2-2-2-2-2-2-2-|
D:-0-0-0-0-0-0-0--4-4-4-4-4-4-4-4--0-0-0-0-0-0-0--2-2-2-2-2-2-2-2-|
A:----------------4-4-4-4-4-4-4-4--2-2-2-2-2-2-2--0-0-0-0-0-0-0-0-|
E:----------------2-2-2-2-2-2-2-2--3-3-3-3-3-3-3------------------|
                                                                   
e:-2-2-2-2-2-2-2--2-2-2-2-2-2-2-2--3-3-3-3-3-3-3--0-0-0-0-0-0-0-0--2-2-2-2-2-2-2-|
B:-3-3-3-3-3-3-3--2-2-2-2-2-2-2-2--3-3-3-3-3-3-3--2-2-2-2-2-2-2-2--3-3-3-3-3-3-3-|
G:-2-2-2-2-2-2-2--2-2-2-2-2-2-2-2--0-0-0-0-0-0-0--2-2-2-2-2-2-2-2--2-2-2-2-2-2-2-|
D:-0-0-0-0-0-0-0--4-4-4-4-4-4-4-4--0-0-0-0-0-0-0--2-2-2-2-2-2-2-2--0-0-0-0-0-0-0-|
A:----------------4-4-4-4-4-4-4-4--2-2-2-2-2-2-2--0-0-0-0-0-0-0-0----------------|
E:----------------2-2-2-2-2-2-2-2--3-3-3-3-3-3-3---------------------------------|

e:-2-2-2-2-2-2-2--2-2-2-2-2-2-2-2--3-3-3-3-3-3-3--0-0-0-0-0-0-0-0-|
B:-3-3-3-3-3-3-3--2-2-2-2-2-2-2-2--3-3-3-3-3-3-3--2-2-2-2-2-2-2-2-|
G:-2-2-2-2-2-2-2--2-2-2-2-2-2-2-2--0-0-0-0-0-0-0--2-2-2-2-2-2-2-2-|
D:-0-0-0-0-0-0-0--4-4-4-4-4-4-4-4--0-0-0-0-0-0-0--2-2-2-2-2-2-2-2-|
A:----------------4-4-4-4-4-4-4-4--2-2-2-2-2-2-2--0-0-0-0-0-0-0-0-|
E:----------------2-2-2-2-2-2-2-2--3-3-3-3-3-3-3------------------|
                                                                   
e:-2-2-2-2-2-2-2--2-2-2-2-2-2-2-2--3-3-3-3-3-3-3--0-0-0-0-0-0-0-0--2-2-2-2-2-2-2-|
B:-3-3-3-3-3-3-3--2-2-2-2-2-2-2-2--3-3-3-3-3-3-3--2-2-2-2-2-2-2-2--3-3-3-3-3-3-3-|
G:-2-2-2-2-2-2-2--2-2-2-2-2-2-2-2--0-0-0-0-0-0-0--2-2-2-2-2-2-2-2--2-2-2-2-2-2-2-|
D:-0-0-0-0-0-0-0--4-4-4-4-4-4-4-4--0-0-0-0-0-0-0--2-2-2-2-2-2-2-2--0-0-0-0-0-0-0-|
A:----------------4-4-4-4-4-4-4-4--2-2-2-2-2-2-2--0-0-0-0-0-0-0-0----------------|
E:----------------2-2-2-2-2-2-2-2--3-3-3-3-3-3-3---------------------------------|


   mita koto mo...
e:-3----------0----------2-----------2---|
B:-3----------2----------2-----------3---|
G:-0----------2----------2-----------2---|
D:-0----------2----------4-----------0---|
A:-2----------0----------4---------------|
E:-3---------------------2---------------|

e:-3----------0--------2--2--2-2-2-|
B:-3----------2--------3--3--3-3-3-|
G:-0----------2--------2--2--2-2-2-|
D:-0----------2--------0--0--0-0-0-|
A:-2----------0--------------------|
E:-3-------------------------------|

   jirita koto mo...                                                                 dakara
e:-3-3-3-3-3-3-3--0-0-0-0-0-0-0-0--2-2-2-2-2-2-2-2--2-2-2-2-2-2-2-2--3-3-3-3-3-3-3-3-----|
B:-3-3-3-3-3-3-3--2-2-2-2-2-2-2-2--2-2-2-2-2-2-2-2--3-3-3-3-3-3-3-3--3-3-3-3-3-3-3-3--2--|
G:-0-0-0-0-0-0-0--2-2-2-2-2-2-2-2--2-2-2-2-2-2-2-2--4-4-4-4-4-4-4-4--0-0-0-0-0-0-0-0--2--|
D:-0-0-0-0-0-0-0--2-2-2-2-2-2-2-2--4-4-4-4-4-4-4-4--4-4-4-4-4-4-4-4--0-0-0-0-0-0-0-0--2--|
A:-2-2-2-2-2-2-2--0-0-0-0-0-0-0-0--4-4-4-4-4-4-4-4--2-2-2-2-2-2-2-2--2-2-2-2-2-2-2-2--0--|
E:-3-3-3-3-3-3-3-------------------2-2-2-2-2-2-2-2-------------------3-3-3-3-3-3-3-3-----|

  verse
e:-2-2-2-2-2-2-2--2-2-2-2-2-2-2-2--3-3-3-3-3-3-3--0-0-0-0-0-0-0-0-|
B:-3-3-3-3-3-3-3--2-2-2-2-2-2-2-2--3-3-3-3-3-3-3--2-2-2-2-2-2-2-2-|
G:-2-2-2-2-2-2-2--2-2-2-2-2-2-2-2--0-0-0-0-0-0-0--2-2-2-2-2-2-2-2-|
D:-0-0-0-0-0-0-0--4-4-4-4-4-4-4-4--0-0-0-0-0-0-0--2-2-2-2-2-2-2-2-|
A:----------------4-4-4-4-4-4-4-4--2-2-2-2-2-2-2--0-0-0-0-0-0-0-0-|
E:----------------2-2-2-2-2-2-2-2--3-3-3-3-3-3-3------------------|


e:-2-2-2-2-2-2-2--2-2-2-2-2-2-2-2--3-3-3-3-3-3-3--0-0-0-0-0-0-0-0-|
B:-3-3-3-3-3-3-3--3-3-3-3-3-3-3-3--3-3-3-3-3-3-3--2-2-2-2-2-2-2-2-|
G:-2-2-2-2-2-2-2--4-4-4-4-4-4-4-4--0-0-0-0-0-0-0--2-2-2-2-2-2-2-2-|
D:-0-0-0-0-0-0-0--4-4-4-4-4-4-4-4--0-0-0-0-0-0-0--2-2-2-2-2-2-2-2-|
A:----------------2-2-2-2-2-2-2-2--2-2-2-2-2-2-2--0-0-0-0-0-0-0-0-|
E:---------------------------------3-3-3-3-3-3-3------------------|


e:-2--------------0----------------3--------------0---------------|
B:-3--------------2----------------3--------------2---------------|
G:-2--------------2----------------0--------------2---------------|
D:-0--------------2----------------0--------------2---------------|
A:-0--------------0----------------2--------------0---------------|
E:---------------------------------3------------------------------|


e:-2----------------------------------|
B:-3----------------------------------|
G:-2----------------------------------|
D:-0----------------------------------|
A:-0----------------------------------|
E:------------------------------------|

hillo son mex

13/05/09
Tap to rate this tab
# A B C D E F G H I J K L M N O P Q R S T U V W X Y Z