Song name
# A B C D E F G H I J K L M N O P Q R S T U V W X Y Z

Parhelia - Pacific tab

-----------------------------------------------------------------------------                  
Pacific - Parhelia (www.parheliaband.com)
-------------------------------------------------------------------------------
Tabbed by: Greg Clarke
Email: greg@parheliaband.com

Tuning: Drop D

This is the first guitar only, guitar two is completely different, tab to follow.

Riff 1. Clean with Delay (Approx 420ms) X 4

e|---------------------------------------------------------------------------|
B|---------------------------------------------------------------------------|
G|-------------------------------------------12-/-14---10---------10---------|
D|----------14-----------10----------10---------------------10---------10----|
A|---12------------12---------12---------------------------------------------|
D|---------------------------------------------------------------------------|

e|---------------------------------------------------------------------------|
B|---------------------------------------------------------------------------|
G|---------------------------------------------------------------------------|
D|----------14-----------10---------10------------14---------10-----------10-|
A|---12-----------12----------12------------12----------12---------12--------|
D|---------------------------------------------------------------------------|


Riff 2 Clean X 2
e|---------------------------------------------------------------------------|
B|---------------------------------------------------------------------------|
G|-------x----5---x---5-------5-5-5----x-x-----------x----5---x---5----------|
D|--5h7--x----7---x---7-------7-7-7----x-x-----5h7---x----7---x---7----------|
A|---------------------------------------------------------------------------|
D|---------------------------------------------------------------------------|

e|---------------------------------------------------------------------------|
B|---8 8---------------------------------------------------8-----8--8--8-----|
G|--------7-------------x-----5----x---5------5-5-5--x-x---9-----9--9--9-----|
D|-----------5-----5h7--x-----7----x---7------7-7-7--x-x---10----10-10-10----|
A|---------------------------------------------------------------------------|
D|---------------------------------------------------------------------------|

e|---------------------------------------------------------------------------|
B|-10-10-10-10---------------------------------------------------------------|
G|-9--9--9--9----------------------------------------------------------------|
D|-10-10-10-10---------------------------------------------------------------|
A|---------------------------------------------------------------------------|
D|---------------------------------------------------------------------------|

Riff 3 Clean X 2
e|---------------------------------------------------------------------------|
B|---------------------------------------------------------------------------|
G|-------x---5---x---5-------5-5-5----x-x----------x---5--x---5----7---5-5---|
D|--5h7--x---7---x---7-------7-7-7----x-x----5h7---x---7--x---7----7---7-7---|
A|---------------------------------------------------------------------------|
D|---------------------------------------------------------------------------|

e|---------------------------------------------------------------------------|
B|------------------------------------8----8--8--8----5-5--5-5---------------|
G|-------x---5---x---5-------5-5-5----9----9--9--9----7-7--7-7---------------|
D|--5h7--x---7---x---7-------7-7-7----10---10-10-10---7-7--7-7---------------|
A|---------------------------------------------------------------------------|
D|---------------------------------------------------------------------------|


Repeat Riff 1 X 4 (Second half of this riff is changed as follows)
e|---------------------------------------------------------------------------|
B|---------------------------------------------------------------------------|
G|----------------------10---------10-----------------------10-------------10|
D|---------14-----------10---------10------------14---------10-------------10|
A|--12-----------12----------12------------12----------12---------12---------|
D|---------------------------------------------------------------------------|


Repeat Riff 2 X 2
Repeat Riff 3 X 2


Riff 4 Clean, with Delay (Approx 420ms) X 2
e|----------------------5-----------------------------------------------------|
B|----------------------5-----------------------------------------------------|
G|--10--------9---------7-----------------------------------------------------|
D|--10--------9---------7-------2------2/5-\2---------------------------------|
A|--8---------7---------5-------0---------------------------------------------|
D|----------------------------------------------------------------------------|




Riff 5 With Delay (Approx 420ms) X 8 (4 Clean, 4 Distorted)

e|---------------------------------------------------------------------------|
B|-10----10---8-8---8--------------------------------------------------------|
G|----10---------------10---10--~9~-------------10--10-9--9---9----7---7--5--|
D|------------------------0--------0--10--12------0------------------0-------|
A|---------------------------------------------------------------------------|
D|---------------------------------------------------------------------------|

e|---------------------------------------------------------------------------|
B|---------------------------------------------------------------------------|
G|---------------------------------------------------------------------------|
D|-0-5-7---------------------------------------------------------------------|
A|---------------------------------------------------------------------------|
D|---------------------------------------------------------------------------|


Riff 6 Distorted With Delay (Approx 420ms) X 2 (4 Clean, 4 Distorted)
e|---------------------------------------------------------------------------|
B|-10-10-10-10-10----------------------------------------------------10-10-10|
G|-10-10-10-10-10--9--9--9--9--9---0--12-12-12-12-12\5/-3-3-3-3-3----10-10-10|
D|-----------------10-10-10-10-10--0--10-10-10-10-10\3/-5-5-5-5-5------------|
A|---------------------------------------------------------------------------|
D|---------------------------------------------------------------------------|

e|---------------------------------------------------------------------------|
B|-10-10---------------------------------------15-15-15-15-15----------------|
G|-10-10--9--9--9--9--9---x-x--12-12-12-12-12--12-12-12-12-12----------------|
D|--------10-10-10-10-10--x-x--10-10-10-10-10--------------------------------|
A|---------------------------------------------------------------------------|
D|---------------------------------------------------------------------------|

Riff 7 Distorted With Delay (Approx 420ms) X 2
e|---------------------------------------------------------------------------|
B|---------------------------------------------------------------------------|
G|-10-10-10-10-10-10-10-10-10-10-10-10-10-10----------10-10-10-10-10-10-10-10|
D|---------------------------------------------10--12------------------------|
A|-8--8--8--8--8--8--8--8--8--8--8--8--8--8----------------------------------|
D|---------------------------------------------------------------------------|

e|---------------------------------------------------------------------------|
B|---------------------------------------------------------------------------|
G|-9-9-9-------------------10-10-10-10-10-10-10-10 10/12 12-12-12-12-12-12---|
D|---------12-12-12-10-------------------------------------------------------|
A|-------------------------8--8--8--8--8--8--8--8--8/ 10-10-10-10-10-10-10---|
D|---------------------------------------------------------------------------|

e|---------------------------------------------------------------------------|
B|---------------------------------------------------------------------------|
G|-----------10-10-10-10-10-10-10-10---9-9-9---------------------------------|
D|--10--12-------------------------------------12-12-12-10-------------------|
A|---------------------------------------------------------------------------|
D|---------------------------------------------------------------------------|




Riff 8 Distorted, with Delay (Approx 420ms) X 4
e|---------------------------------------------------------------------------|
B|---------------------------------------------------------------------------|
G|---------------------------------------------------------------------------|
D|--10---10--12--- 10---12-/--14---14---14-------10---10--12---10---12--15---|
A|-----0x--------0x--------------0x---0x---0x-------0x-------0x------------0x|
D|---------------------------------------------------------------------------|


                          Bar 4 finishes with
e|---------------------||----------------------------------------------------|
B|---------------------||----------------------------------------------------|
G|--15---14---14b------||----------------------------------------------------|
D|----------0x---------||-10---10--12--- 10---12---15-15-15-15-15-15-15-15---|
A|---------------------||----0x--------0x----------0--0--0--0--0--0--0--0----|
D|---------------------||----------------------------------------------------|


Riff 9 Distorted, with Delay (Approx 420ms) X 3
e|---------------------------------------------------------------------------|
B|---------------------------------------------------------------------------|
G|---------------------------------------------------------------------------|
D|-----10----10-----10------15--15--15---14-----14--------10---10---10-------|
A|--12----12----12-----12-------------------12-----12--0-----0----0----0-----|
D|---------------------------------------------------------------------------|


e|---------------------------------------------------------------------------|
B|---------------------------------------------------------------------------|
G|-------------------------------------10-------------------------------12---|
D|--14--14---14--12----12--------10-------10----10---15--15--15--14--------10|
A|------------------0------0--12----12-------12----------------------12------|
D|---------------------------------------------------------------------------|

e|---------------------------------------------------------------------------|
B|---------------------------------------------------------------------------|
G|---------------------------------------------------------------------------|
D|------10---10---10-----14--14---14--12----12-------------------------------|
A|---0-----0----0----0-------------------0------0----------------------------|
D|---------------------------------------------------------------------------|


Riff 9 Distorted, with Delay (Approx 420ms) X 3
e|-----------------0------------------------0------------------------0-------|
B|--------10----10---10------------10----10---10------------11----11---11----|
G|--10-10----10---------10---10-10----10---------10---10-10----10---------10-|
D|---------------------------------------------------------------------------|
A|---------------------------------------------------------------------------|
D|---------------------------------------------------------------------------|

e|----------------0----------------------0-----------------------0-----------|
B|-------11----11---11----------10----10---10-----------10----10---10--------|
G|-10-10----10---------10--10-10---10---------10--10-10----10---------10-----|
D|---------------------------------------------------------------------------|
A|---------------------------------------------------------------------------|
D|---------------------------------------------------------------------------|

e|----------------0----------------------------------------------------------|
B|-------11----11---11------------13------------15---------------------------|
G|-10-10----10---------10----10-------10-/--12-------------------------------|
D|---------------------------------------------------------------------------|
A|---------------------------------------------------------------------------|
D|---------------------------------------------------------------------------|


Riff 10 Clean, with Delay (Approx 420ms) X 2
e|------------0----------------------------0-----------------------0---------|
B|-----10----------10-------------10-----------10------------10-------10-----|
G|--10----10------------10-----10----10------------10-----10----10--------10-|
D|---------------------------------------------------------------------------|
A|---------------------------------------------------------------------------|
D|---------------------------------------------------------------------------|


e|-----------0-----------------------------------------0---------------------|
B|----11---------11------------13----------15----------10--------------------|
G|-10----10----------10----10------10/-12--------0-----10--------------------|
D|---------------------------------------------------------------------------|
A|---------------------------------------------------------------------------|
D|---------------------------------------------------------------------------|
************************************

| /   slide up
| \   slide down
| h   hammer-on
| p   pull-off
| ~   vibrato
| +   harmonic
| x   Mute note
| b   Bend
| pb  Pre-bend
| br  Bend release
| pbr Pre-bend release
| brb Bend release bend

************************************
Tap to rate this tab
# A B C D E F G H I J K L M N O P Q R S T U V W X Y Z