Song name
# A B C D E F G H I J K L M N O P Q R S T U V W X Y Z

Park Lane 7 - Never Give Up tab

Help us improve GuitareTab! Take a short survey!
Song from the movie "Wir machens auf finnisch"..Don't know if the song was really 
by park lane 7..some say so others so..doesn't matter, Quite liked the song so here it is:

Song: http://de.youtube.com/watch?v=OF4p6eKJJjM&feature=related
Tuning: Standard

Intro

e-------------------------------------------------------------------|
b------0---0------------0---0------------0---0------------0---0-----|
g----7---7-----7------9---9-----9------7---7-----7------9---9-----9-| 3x
d--9---------9------7---------7------5---------5------7---------7---|
a-------------------------------------------------------------------|
e-------------------------------------------------------------------|

Verse:

basically these chords, the picking is a mix between palm muting and regular strokes:

e-------------|
b-------------|
g-------------|
d--5--9--5--7-|
a--5--9--5--7-|
e--3--7--3--5-|

Chorus: again here are the chords, you get the idea

e--------------|
b--------------|
g--------5-----|
d--9--5--5--7--|
a--9--5--3--7--|
e--7--3-----5--|

post chorus:

mix between palm muting and regular strokes, similar to the verse:

e--------------|
b--------------|
g--------------|
d--9--7--5--7--|
a--9--7--5--7--|
e--7--5--3--5--|

bridge:

e--------------------------------|
b--------------------------------|
g--------------------------------|  3x
d--------------------------------|
a--------------------------------|
e--5-7~--5-7~--5-7~--5-7~--5-7~--|


and end the song on:

e-----
b-----
g-----
d--9--
a--9--
e--7--

Order:

Intro
Verse
Chorus
post chorus
bridge
chorus
bridge
chorus

So comments and corrections are welcome and appreciated!

Have fun
Related for Never Give Up tab