Song name
# A B C D E F G H I J K L M N O P Q R S T U V W X Y Z

Parkway Drive - Hopeless tab

FIRST THINGS FIRST:

Duration Legend
---------------
W - whole
H - half
Q - quarter
E - 8th
S - 16th
T - 32nd
X - 64th
. - note dotted
|-n-|  - n-tuplets


Tablature Legend
----------------
L - tied note
x - dead note
g - grace note
(n) - ghost note
> - accentuded note
NH - natural harmonic
AH - artificial harmonic
TH - tapped harmonic
SH - semi harmonic
PH - pitch harmonic
h - hammer on
p - pull off
b - bend
br - bendRelease
pb - preBend
pbr - preBendRelease
brb - bendReleaseBend
\n/ - tremolo bar dip
\n - tremolo bar dive
-/n - tremolo bar Release up
/n\ - tremolo bar inverted dip
/n - tremolo bar return
-\n - tremolo bar Release down
S - shift slide
s - legato slide
/ -  slide into from below or out of upwards
\ -  slide into from above or out of downwards
~ - vibrato
W - wide vibrato
tr - trill
TP - tremolo picking
T - tapping
S - slap
P - pop
< - fade in
^ - brush up
v - brush down




Hopeless By Parkway Drive

Don't Close your eyes EP

Tabbed by Sam Graham

Tis my first tab

in Drop C Tuning

1 = D   4 = C
2 = A   5 = G
3 = F   6 = C



Tempo = 140





PART 1 (In 3/4)

Guitar 1

             S S S S S S S S S S S S  
D||-------|--------------------------|
A||-------|--------------------------|
F||-------|--------------------------|
C||-------|--------------------------|       
G||-------|--------------0-0-0-1-1-1-|
C||-------|--0-0-0-5-5-5-------------|

Guitar 2

             S S S S S S S S S S S S  
D||-------|--------------------------|
A||-------|--------------------------|
F||-------|--------0-0-0-2-2-2-3-3-3-|
C||-------|--0-0-0-------------------|
G||-------|--------------------------|
C||-------|--------------------------|

Guitar 1

  S S S S S S S S S S S S  
--------------------------|
--------------------------|
--------------------------|
--------------------------|
--3-3-3-------------0-0-0-|
--------3-3-3-5-5-5-------|

Guitar 2

  S S S S S S S S S S S S  
--------------------------|
--------------------------|
--------------0-0-0-2-2-2-|
--------3-3-3-------------|
--3-3-3-------------------|
--------------------------|


Guitar 1
  S S S S S S S S S S S S  
--------------------------|
--------------------------|
--------------------------|
--------------------------|
--------------0-0-0-1-1-1-|
--0-0-0-5-5-5-------------|


Guitar 2
  S S S S S S S S S S S S  
--------------------------|
--------------------------|
--------0-0-0-2-2-2-3-3-3-|
--0-0-0-------------------|
--------------------------|
--------------------------|


Guitar 1
  S S S S S S S S S S S S  
--------------------------|
--------------------------|
--------------0-0-0-------|
--0-0-0-------------0-0-0-|
--------3-3-3-------------|
--------------------------|

Guitar 2
  S S S S S S S S S S S S  
--------------3-3-3-------|
--3-3-3-1-1-1-------3-3-3-|
--------------------------|
--------------------------|
--------------------------|
--------------------------|




PART 2 (In 3/4) 

  E.  E.  S. S. S. S.  
----------------------|
----------------------|
----------------------|
------0---0--------0--|
--0---0---0--0--0--0--|
--0---0---0--0--0--0--|


  E.  E.  S. S. S. S.  
----------------------|
----------------------|
----------------------|
------0---0--------0--|
--0---0---0--0--0--0--|
--0---0---0--0--0--0--|


  E.  E.  S. S. S. S.    E.  E.  Q.      
----------------------|-----------------|
----------------------|-----------------|
----------------------|-----------------|
------0---0--------0--|------0----------|
--0---0---0--0--0--0--|--0---0----------|
--0---0---0--0--0--0--|--0---0----------|




  E.  E.  S. S. S. S.  
----------------------|
------3------------3--|
------2------------2--|
------0---0--------0--|
--0-------0--0--0-----|
--0-------0--0--0-----|


  E.  E.  S. S. S. S.  
----------------------|
------3---------------|
------2---------------|
------0---0--------0--|
--0-------0--0--0--0--|
--0-------0--0--0--0--|


  E.  E.  S. S. S. S.  
----------------------|
------3---------------|
------2---------------|
------0---0--------0--|
--0-------0--0--0--0--|
--0-------0--0--0--0--|
 
Guitar 1

  S. S. S. S. S. S. E.   
------------------------|
------------------------|
------------------------|
------------------------|
--1--0--------0---------|
--------5--3-----5--3---|

Guitar 2

  S. S. S. S. S. S. E.                   
------------------------|
------------------------|
--3--2--0-----2--0------|
-----------3--------3---|
------------------------|
------------------------|



Then Repeat Part One



Epic Bass Bridge that I had to add because it is so awesome (In 4/4)


  E  E  E  E  T   S.E  E  E   
-----------------------------|
--------7-----9s-10-8--7--8--|
--5--5-----5-----------------|
-----------------------------|


  E  E  E  E  T  S. E  E  E   
-----------------------------|
--------3-----6s-7--5--3--5--|
--1--1-----1-----------------|
-----------------------------|


  E  E  E  E  E  E  E  E   
--------------0-----------|
--------3--------3--2--3--|
--------------------------|
--3--3-----3--------------|


  E  E  E  E  E  E  E  E   
--------------------------|
--------2-----2--3--2-----|
--3--3-----3-----------3--|
--------------------------|



PART 3


Guitar 1

                  <
|Bass Part Here|  W                
-------|-------|--3----------------|
-------|-------|-------------------|
-------|-------|-------------------|
-------|-------|-------------------|
-------|-------|-------------------|
-------|-------|-------------------|

Guitar 2

|Bass Part Here|  W                
-------|-------|-------------------|
-------|-------|-------------------|
-------|-------|-------------------|
-------|-------|--5----------------|
-------|-------|--5----------------|
-------|-------|--5----------------|


Guitar 1

  <                   <                 
  W                   W                 
--6----------------|-------------------|
-------------------|--6----------------|
-------------------|-------------------|
-------------------|-------------------|
-------------------|-------------------|
-------------------|-------------------|

Guitar 2

  W                   W                 
-------------------|-------------------|
-------------------|-------------------|
--3----------------|-------------------|
--3----------------|--3----------------|
--1----------------|--3----------------|
-------------------|--3----------------|

Guitar 1

  <                   <                 
  W                   W                 
--8----------------|-------------------|
-------------------|--8----------------|
-------------------|-------------------|
-------------------|-------------------|
-------------------|-------------------|
-------------------|-------------------|

Guitar 2

  W                   W                 
-------------------|-------------------|
-------------------|-------------------|
--5----------------|-------------------|
--5----------------|--5----------------|
--3----------------|--5----------------|
-------------------|--5----------------|



Guitar 1

  <                   <                 
  W                   W                 
-------------------|-------------------|
-------------------|--6----------------|
--7----------------|-------------------|
-------------------|-------------------|
-------------------|-------------------|
-------------------|-------------------|

Guitar 2

  W                   W                 
-------------------|-------------------|
-------------------|-------------------|
-------------------|-------------------|
--0----------------|--3----------------|
--0----------------|--3----------------|
--0----------------|--3----------------|


Guitar 1

  <                 
  W                 
-------------------|
-------------------|
--5----------------|
-------------------|
-------------------|
-------------------|

Guitar 2

  W                                  
-------------------|
-------------------|
--5----------------|
--5----------------|
--3----------------|
-------------------|


PART 4 (the tapping part)

Guitar 2 Continues with the Rhythm in Part 3



Guitar 1

   T    T    T   T    T   T   T   T    
   S S  S S  S S S S  S S S S S S S S  
--------------------------------------|
--10-3-11-3-10-3-8-3-10-3-8-3-6-3-8-3-|
--------------------------------------|
--------------------------------------|
--------------------------------------|
--------------------------------------|


  T   T   T   T   T   T   T   T    
  S S S S S S S S S S S S S S S S  
----------------------------------|
--6-3-5-3-6-3-5-3-6-3-5-3-6-3-8-3-|
----------------------------------|
----------------------------------|
----------------------------------|
----------------------------------|


  T   T   T   T   T   T   T   T    
  S S S S S S S S S S S S S S S S  
----------------------------------|
--6-3-5-3-6-3-5-3-6-3-5-3-6-3-8-3-|
----------------------------------|
----------------------------------|
----------------------------------|
----------------------------------|


  T   T   T   T    T    T   T    T    
  S S S S S S S S  S S  S S S S  S S  
-------------------------------------|
--6-3-5-3-6-3-8-3-11-3-10-3-8-3-10-3-|
-------------------------------------|
-------------------------------------|
-------------------------------------|
-------------------------------------|


   T    T    T   T    T   T   T   T    
   S S  S S  S S S S  S S S S S S S S  
--------------------------------------|
--10-3-11-3-10-3-8-3-10-3-8-3-6-3-8-3-|
--------------------------------------|
--------------------------------------|
--------------------------------------|
--------------------------------------|


  T   T   T   T   T   T   T   T    
  S S S S S S S S S S S S S S S S  
----------------------------------|
--6-3-5-3-6-3-5-3-6-3-5-3-6-3-8-3-|
----------------------------------|
----------------------------------|
----------------------------------|
----------------------------------|


  T   T   T   T   T   T   T   T    
  S S S S S S S S S S S S S S S S  
----------------------------------|
--6-3-5-3-6-3-5-3-6-3-5-3-6-3-8-3-|
----------------------------------|
----------------------------------|
----------------------------------|
----------------------------------|


  T   T   T   T    T    T   T    T    
  S S S S S S S S  S S  S S S S  S S  
-------------------------------------|
--6-3-5-3-6-3-8-3-11-3-10-3-8-3-10-3-|
-------------------------------------|
-------------------------------------|
-------------------------------------|
-------------------------------------|


   T    T    T   T    T   T   T   T    
   S S  S S  S S S S  S S S S S S S S  
--------------------------------------|
--10-3-11-3-10-3-8-3-10-3-8-3-6-3-8-3-|
--------------------------------------|
--------------------------------------|
--------------------------------------|
--------------------------------------|


  T   T   T   T   T   T   T   T    
  S S S S S S S S S S S S S S S S  
----------------------------------|
--6-3-5-3-6-3-5-3-6-3-5-3-6-3-5-3-|
----------------------------------|
----------------------------------|
----------------------------------|
----------------------------------|


  T   T   T   T   T   T   T   T    
  S S S S S S S S S S S S S S S S  
----------------------------------|
--6-3-5-3-6-3-5-3-6-3-5-3-6-3-5-3-|
----------------------------------|
----------------------------------|
----------------------------------|
----------------------------------|


  T   T   T   T   T   T   T   T    
  S S S S S S S S S S S S S S S S  
----------------------------------|
--6-3-5-3-6-3-5-3-6-3-5-3-6-3-5-3-|
----------------------------------|
----------------------------------|
----------------------------------|
----------------------------------|


  T   T   T   T   T   T   T   T    
  S S S S S S S S S S S S S S S S  
----------------------------------|
--6-3-5-3-6-3-5-3-6-3-5-3-6-3-5-3-|
----------------------------------|
----------------------------------|
----------------------------------|
----------------------------------|


  T   T   T   T   T   T   T   T    
  S S S S S S S S S S S S S S S S  
----------------------------------|
--6-3-5-3-6-3-5-3-6-3-5-3-6-3-5-3-|
----------------------------------|
----------------------------------|
----------------------------------|
----------------------------------|


  T   T   T   T   T   T   T   T    
  S S S S S S S S S S S S S S S S  
----------------------------------|
--6-3-5-3-6-3-5-3-6-3-5-3-6-3-5-3-|
----------------------------------|
----------------------------------|
----------------------------------|
----------------------------------|


  T   T   T   T   T   T   T   T    
  S S S S S S S S S S S S S S S S  
----------------------------------|
--6-3-5-3-6-3-5-3-6-3-5-3-6-3-5-3-|
----------------------------------|
----------------------------------|
----------------------------------|
----------------------------------|


PART 5 (I think its Wrong)

  Q    E  E  Q    E  E   
------------------------|
------------------------|
--2----2--2--2----2--2--|
--0----0--0--0----0--0--|
--0----0--0--0----0--0--|
--0----0--0--0----0--0--|


  Q    E  E  Q    E  E   
------------------------|
------------------------|
--3----------5----5--5--|
--3----------5----5--5--|
--1----1--3--3----3--3--|
------------------------|

Repeat 4 Times

   W             
|-------------------|
|-------------------|
|-------------------|
|--0----------------|
|--0----------------|
|--0----------------|



  W                   W                 
-------------------|-------------------|
-------------------|-------------------|
-------------------|-------------------|
--L----------------|--L----------------|
--L----------------|--L----------------|
--L----------------|--L----------------|


PART 6 (Ending)

  T T E   T. T.S.  T. T.S. T T E   
----------------------------------|
----------------------------------|
----------------------------------|
----------------------------------|
---------12-12----12-12-----------|
--0-0-0--------0--------0--0-0-0--|


  T. T. S. T. T. S. S. S. S. S.  
--------------------------------|
--------------------------------|
--------------------------------|
--------------------------------|
--8--8-----8--8--------7--5--7--|
--------0--------0--0-----------|

Repeat Part Six 12 times



ENJOY
Tap to rate this tab
 
# A B C D E F G H I J K L M N O P Q R S T U V W X Y Z