Song name
# A B C D E F G H I J K L M N O P Q R S T U V W X Y Z

Parkway Drive - Flesh Bone And Weakness tab

	-------------------------------------------------------------------------------
Flesh Bone And Weakness
Parkway Drive
-------------------------------------------------------------------------------
Tabbed by: Adrianledzep
Email:

hi this is my first tab, 
i've had some request for this one 
if you want to plz check out my youtube cover of this song 
http://www.youtube.com/watch?v=VWn4ppf92GI
enjoy!
Post any comments or questions you have 

Tuning: Drop b

C#|---------------------------------------------------------------------------|
G#|-----------------------1--------1---------5----------5-------0---3-1-0-----|
E |----4-5-4----4-5-4---2---2----2----2----5----5----5----5---0---0-------0---| intro x2
B |---------------------------------------------------------------------------|
F#|-0--------0--------0--------0--------0--------0----------0-----------------|
B |---------------------------------------------------------------------------|

   Shades drawn across                  
C#|---------------------------------------------------------------------------|
G#|-10--10-8-6-8-6-5-5h6--6-5-3-5-3-----10--10-8-6-8-6-5-5h6--6-5-3-5-3-------|
E |---------------------------------5-----------------------------------5-----| x2
B |---------------------------------------------------------------------------|
F#|---------------------------------------------------------------------------|
B |---------------------------------------------------------------------------|

    
C#|----------------------------------------------------------------------------|
G#|----------------------------------------------------------------------------|
E |14-0-10-0-14-0-10-0-14-0-10-0-14-0-10-0--12-0-9-0-12-0-9-0-12-0-9-0-12-0-9-0|
B |----------------------------------------------------------------------------|
F#|----------------------------------------------------------------------------|
B |----------------------------------------------------------------------------|

    So hard to clear my mind
C#|---------------------------------------------------------------------------|
G#|---------------------------------------------------------------------------|
E |-14-12-10-0-14-0-10-0-14-0-10-0-14-0-10-0--12-0-9-0-12-0-9-0-12-0-9-12-----|         
B |---------------------------------------------------------------------------|
F#|---------------------------------------------------------------------------|
B |---------------------------------------------------------------------------|

    Why do i persist?
C#|----------------------------------------------------------------------------------|
G#|----------------------------------------------------------------------------------|
E |----------------------------------------------------------------------------------|
B |-15-0-12-0-15-0-12-0-15-0-12-0-15-0-12-0--14-0-10-0-14-0-10-0-14-0-10-0-14-0-10-0-|
F#|----------------------------------------------------------------------------------|
B |----------------------------------------------------------------------------------|

C#|----------------------------------------------------------------------------|
G#|----------------------------------------------------------------------------|
E |----------------------------------------------------------------------------|
B |-15-0-12-0-15-0-12-0-15-0-12-0-15-0-12-0--14-0-10-0-14-0-10-0-14-0-10-0-14--|
F#|----------------------------------------------------------------------------|
B |----------------------------------------------------------------------------|

    


I'll endure another day
C#|---------------------------------------------------------------------------|
G#|---------------------------------------------------------------------------|
E |---------------------------------------------------------------------------|
B |---------------------------------------------------------------------------|
F#|-12-0-8-0-12-0-8-0-12-0-8-0-12-0-8-0--10-0-7-0-10-0-7-0-10-0-7-0-10-0-7-0--|
B |---------------------------------------------------------------------------|

  
    Why do i persist?
C#|---------------------------------------------------------------------------|
G#|---------------------------------------------------------------------------|
E |---------------------------------------------------------------------------|
B |---------------------------------------------------------------------------|
F#|-12-0-8-0-12-0-8-0-12-0-8-0-12-0-8-0--10-0-7-0-10-0-7-0-10-0-7-0-10-0-7----|
B |---------------------------------------------------------------------------|

   
   Why
C#|---------------------------------------------------------------------------|
G#|---------------------------------------------------------------------------|
E |---------------------------------------------------------------------------|
B |-0---------------3--5--------------0--------------3--5---------------------|
F#|-0---------------3--5--------------0--------------3--5---------------------|
B |-0---------------3--5--------------0--------------3--5---------------------|

   It's just so hard to resist
C#|---------------------------------------------------------------------------|
G#|-3---------------------------------3---------------------------------------|
E |-2---------------------------------2---------------------------------------|
B |-0---------------3--5--------------0--------------3--5---------------------|
F#|-0---------------3--5--------------0--------------3--5-----PICK SCRATCH----|
B |-0---------------3--5--------------0--------------3--5----//////////////---|

   So hard to clear my mind
C#|---------------------------------------------------------------------------|
G#|-----------------------------------------------------6-6-4-4-3-3-----------|
E |----7-7-5-5-3-3-5-5-3-3-2-2-0-0------0-0-2-2-3-3---------------------------| x2
B |-5---------------------------------1--------------3------------------------|
F#|-5---------------------------------1--------------3------------------------|
B |-5---------------------------------1--------------3------------------------|


                      And I blame myself
C#|---------------------------------------------------------------------------|
G#|-10-9-7---9-7-5---10-9-7-10------------------------------------------------|
E |---------------------------------------------------------------------------|
B |-8--7-5---7-5-3---8--7-5-8--------0---0-----0--------0---0-----------------|x3
F#|----------------------------------0---0-----0--------0---0-----------------|
B |----------------------------0-0-0-0-0-0-0-0-0--0-0-0-0-0-0-0-0-------------|
P.M                            . . .   .   . .    . . .   .   . .

     Telling me it's all wrong
C#|--------------------------[9]------[9]------[9]-----[9]-------------|
G#|-10-9-7---9-7-5---10-9-7--[9]------[9]------[9]-----[9]-------------|
E |--------------------------[9]------[9]------[9]-----[9]-------------|
B |-8--7-5---7-5-3---8--7-5--[9]-0-0--[9]-0-0--[9]-0-0[9]-0-0---------|
F#|------------------------------0-0------0-0------0-0-----0-0---------|
B |------------------------------0-0------0-0------0-0-----0-0---------|
P.M.                             . .      . .      . .     . .

    I'll endure another day
C#|-----------------------[9]------[9]------[9]-----[9]------------|
G#|-----------------------[9]------[9]------[9]-----[9]------------|
E |-7-5-7--9-8-9--10-9-8-[9]------[9]------[9]-----[9]------------|
B |-----------------------[9]-0-0--[9]-0-0-[9]-0-0-[9]-0-0--------| x3
F#|---------------------------0-0------0-0------0-0-----0-0--------|
B |---------------------------0-0------0-0------0-0-----0-0--------|
P.M.                          . .      . .      . .     . .

As self loathing strangles me
C#|-------------------------------------|
G#|-------------------------------------|
E |-7-5-7--9-8-9--10-9-8----------------|
B |-------------------------------------|
F#|-------------------------------------|
B |-------------------------------------|


Push past the veil of helplessness 
C#|-------------------------------------|
G#|-------------------------------------|
E |-------------------------------------|
B |-------------------------------------| x3
F#|-0--12-0-10-0-12-8-0-10-0-7-0-7h8----|
B |-------------------------------------|

  It's just not worthe it
C#|-----------------------------------|
G#|-----------------------------------|
E |-----------------------------------|
B |-----------------------------------|
F#|-0--12-0-10-0-8-0-10-0-8-0-7-5-----|
B |-----------------------------------|

Take your hand and just surrender?
C#|------------------------------------|
G#|------------------------------------|
E |------------------------------------| x3
B |------------------------------------|
F#|-0-8-0-7-0-8-0-5-0-7-0-3-0-3h5------|
B |------------------------------------|

  It's just not worthe it
C#|------------------------------------|
G#|------------------------------------|
E |------------------------------------|
B |------------------------------------|
F#|-0-8-0-7-0-5-0-7-0-5-0-3-0-5*-------|
B |------------------------------------|

Take your hand and just surrender?
C#|--------------------------|
G#|--------------------------|
E |--------------------------|
B |-0-----------0------------|
F#|-0-----------0------------|
B |-0-----------0------------|

    It's just not worthe it
C#|-----------------------------------|
G#|-----------------------------------|
E |-----------------3-3-3-3-3-3-3-3---|
B |-----0-0-0-0-0-0-3-3-3-3-3-3-3-3---| x6
F#|-----0-0-0-0-0-0-1-1-1-1-1-1-1-1---|
B |-----0-0-0-0-0-0-1-1-1-1-1-1-1-1---|
P.M     . . . . . . . . . . . . . .




  It's just not worthe it
C#|--------------------------------------------------------|
G#|--------------------------------------------------------|
E |-0h5h9--0h4h7--0h5h9--0h4h7--0h5h9--0h4h7--0h2h5--0h2h4-| x4
B |--------------------------------------------------------|
F#|--------------------------------------------------------|
B |--------------------------------------------------------|

         All i ever wanted was you 
C#|----------------------------------------|
G#|----------------------------------------|
E |----------------------------------------|
B |--0-------------------------------------|
F#|--0-------------------------------------|
B |--0-------------------------------------|

   Why 
C#|----------------------------------------------------------------------------|
G#|----------------------------------------------------------------------------|
E |14-0-10-0-14-0-10-0-14-0-10-0-14-0-10-0--12-0-9-0-12-0-9-0-12-0-9-0-12-0-9-0|
B |----------------------------------------------------------------------------|
F#|----------------------------------------------------------------------------|
B |----------------------------------------------------------------------------|

   Why do I persist
C#|----------------------------------------------------------------------------------|
G#|----------------------------------------------------------------------------------|
E |----------------------------------------------------------------------------------|
B |-15-0-12-0-15-0-12-0-15-0-12-0-15-0-12-0--14-0-10-0-14-0-10-0-14-0-10-0-14-0-10-0-|
F#|----------------------------------------------------------------------------------|
B |----------------------------------------------------------------------------------|


    I'll endure another day
C#|---------------------------------------------------------------------------|
G#|---------------------------------------------------------------------------|
E |---------------------------------------------------------------------------|
B |---------------------------------------------------------------------------|
F#|-12-0-8-0-12-0-8-0-12-0-8-0-12-0-8-0--10-0-7-0-10-0-7-0-10-0-7-0-10-0-7-0--|
B |---------------------------------------------------------------------------|


C#|--------------------------------------|     
G#|-/10--10-8-6-8-6-5-5h6--6-5-3-5-3-----|
E |----------------------------------5---|x3
B |--------------------------------------|
F#|--------------------------------------|
B |--------------------------------------|


But I'll endure another day
C#|------------------------------------------|     
G#|-/10--10-8-6-8-6-5-5h6--6-5-3-5-3----/10--|
E |----------------------------------5-------|	
B |------------------------------------------|
F#|------------------------------------------|
B |------------------------------------------|





************************************

| /   slide up
| h   hammer-on
| ~   vibrato
| []  natural harmonic
| *   pinch harmonic
| P.M palm muting

************************************
Tap to rate this tab
 
# A B C D E F G H I J K L M N O P Q R S T U V W X Y Z