Song name
# A B C D E F G H I J K L M N O P Q R S T U V W X Y Z

Parokya Ni Edgar - Gising Na tab

Help us improve GuitareTab! Take a short survey!
gising na
parokya ni edgar
jingle balls... silent night... holy cow!
gulong itlog gulong

www.ronreyes.co.nr
www.getmusic.co.nr

Plucking pattern (Stanza):

         D                    A
e----------2h3-2-----!-----------------0-!
b-----3----------3---!-----2---2s3-2-----!
g---2--------------2-!---2-----------2---!
d-0-----0------------!-------2-----------!
a--------------------!-0-----------------!
e--------------------!-------------------!
Gising na             Buksan ang yong mga mata


         D                    A
e----------2h3-2-----!-----------------0-!
b-----3----------3---!-----2---2s3-2-----!
g---2--------------2-!---2-----------2---!
d-0-----0------------!-------2-----------!
a--------------------!-0-----------------!
e--------------------!-------------------!
Gising na             Halina at silipin ang


         Bm               A
e---------2----------!---------0---------!
b-----3-----3--------!-----2-----2-------!
g---4---------4------!---2---------2-----!
d-------4-------4----!-------2-------2---!
a-2------------------!-0-----------------!
e--------------------!-------------------!
pagdilat ng umagang   Tahimik at saksakan ng


         D                Bm       A
e----------2h3-2-----!---------!---------!
b-----3----------3---!---------!---------!
g---2--------------2-!-----4---!---2-----!
d-0-----0------------!---4-----!---2-----!
a--------------------!-2-------!---0-----!
e--------------------!---------!---------!
ganda
Related for Gising Na tab