Song name
# A B C D E F G H I J K L M N O P Q R S T U V W X Y Z

Parokya Ni Edgar - Bagsakan tab

Tabbed by: Quincy Villaver
add me to friendster if you want: qvillaver@yahoo.com

It's up to you to decide which part of the song you will use the riffs..
Such a repetitive and simple song yet cool..
I'm confident that this tab is 90% sure..
It's easier to play this if you have a big hand.
Use standard tuning pepz!

Try to use vibrato to each end note as possible!

Lead Guitar:

e|------------------------------------------------------|
B|------------------------------------------------------|
G|------------------------------------------------------|  
D|---------------6--5--5--------------------------------|
A|---5--5--8--5---------------5--5--8--3--4--4----------|
E|------------------------------------------------------|

When Chito/ Francis/ Glock 9 starts singing use this:
Listen to the song!!

Low pitch:
e|-------------------------|
B|-------------------------|
G|-------------------------|  (3x)
D|---------------6--5--5---|
A|---5--5--8--5------------|
E|-------------------------|

e|-------------------------|
B|-------------------------|
G|-------------------------|  
D|---------------6--5--7---|
A|---5--5--8--5------------|
E|-------------------------|


After that, move to high pitch:
e|-----------------------------|
B|-----------------------------|
G|-----------------------------|  (3x)
D|-------------------11--10--10|
A|---10--10--13--10------------|
E|-----------------------------|

e|-----------------------------|
B|-----------------------------|
G|-----------------------------|  (3x)
D|-------------------11--10--12|
A|---10--10--13--10------------|
E|-----------------------------|


After doing both low and high pitch TWICE, play along with the rhythm guitar
using the power chords below:
e|-------------------------|
B|------(single strum)-----|
G|-------7--10-9--12-------|  (2x)
D|-------7--10-9--12-------|
A|-------5--8--7--10-------|
E|-------------------------|

then:
e|-------------------------------|
B|----------(double strum)-------|
G|-------7-7-10-10-9-9--12-12----|  (2x)
D|-------7-7-10-10-9-9--12-12----|
A|-------5-5-8--8--7-7--10-10----|
E|-------------------------------|

Just before Glock 9 sings, the song pauses a bit:
e|--------------------------------------------------|
B|--------------------------------------------------|
G|--------------------------------------------------|  (3x)
D|-------------------11(bend down)--10v-------------|
A|---10--10--13--10--------------------10(vibrato)--|
E|--------------------------------------------------|



Rhythm Guitar

Use power chord D with right timing. 

e|-------------------------|
B|--(double strum)---------|
G|-------7-7---------------|  (2x)
D|-------7-7---------------|
A|-------5-5---------------|
E|-------------------------|

use this for the noisy parts:
e|-------------------------------|
B|----------(double strum)-------|
G|-------7-7-10-10-9-9--12-12----|  (2x)
D|-------7-7-10-10-9-9--12-12----|
A|-------5-5-8--8--7-7--10-10----|
E|-------------------------------|

that's it!
this is my first tab..
learned by ear..

I might post "killing in the name of.." by RAGE next time

Philippine bands simply rock!
Tap to rate this tab
# A B C D E F G H I J K L M N O P Q R S T U V W X Y Z