Song name
# A B C D E F G H I J K L M N O P Q R S T U V W X Y Z

Parokya Ni Edgar - Crush tab

The Crush by Parokya ni Edgar

tuning: standard

Intro
e|--------------------------------|------------------------------------|
b|--------------------------------|------------------------------------|
g|-----7-7------------------------|------------------------------------|
d|-----7-7--5-5-5-5--7------------|------------------------------------|
a|-----5-5--5-5-5-5--7------------|------------------------------------|
e|----------3-3-3-3--5------------|------------------------------------|

Verse:

Darling you gotta let me know....   Bakit ang Pangit Pangit mo
e|--------------------------------|------------------------------------|
b|--------------------------------|------------------------------------|
g|-----7-7------------------------|-----7-7----------------------------|
d|-----7-7--5-5-5-5--7------------|-----7-7--5-5-5-5--7----------------|
a|-----5-5--5-5-5-5--7------------|-----5-5--5-5-5-5--7----------------|
e|----------3-3-3-3--5------------|----------3-3-3-3--5----------------|


You always say that you are pretty... Pero ika'y mukhang lalaki....
e|--------------------------------|------------------------------------|
b|--------------------------------|------------------------------------|
g|--------------------------------|------7-7-----------7---------------|
d|------5-5--3-3-3-3--5-----------|------7-7--5-5-5-5--7---------------|
a|------5-5--3-3-3-3--5-----------|------5-5--5-5-5-5--5---------------|
e|------3-3--1-1-1-1--3-----------|-----------3-3-3-3------------------|

So come on and let me know....       Bakit ang Pangit Pangit mo....
e|--------------------------------|------------------------------------|
b|--------------------------------|------------------------------------|
g|--------------------------------|-----7-7----------------------------|
d|-------7-7-7-7-7-7-7-7----------|-----7-7--5-5-5-5--7----------------|
a|-------7-7-7-7-7-7-7-7----------|-----5-5--5-5-5-5--7----------------|
e|-------5-5-5-5-5-5-5-5----------|----------3-3-3-3--5----------------|

sa chorus uulitin mu lang pero tuloy-tuloy ang pag strum.... at ganun na din sa instrumental

sa 2nd Verse ganun din parehas lang sa verse 1 

kung hindi nyo pa rin maintindihan pakingan nyo lang nang mabuti makukuha nyo rin yan..
Tap to rate this tab
 
# A B C D E F G H I J K L M N O P Q R S T U V W X Y Z