Guitaretab - guitar tabs
Song name
# A B C D E F G H I J K L M N O P Q R S T U V W X Y Z

Parokya Ni Edgar - Papa Cologne tab

Tabbed by:jasper(oweno93@yahoo.com)
Tuning:standard E,B,G,D,A,E

Intro

guitarI                        
1st riff   2nd riff            
|---------|-----------------|  
|---------|-------------5-7-|  
|------7--|------7--7-4-----|  
|--5/7----|--5/7------------|   
|---------|-----------------|  
|---------|-----------------|   
 
stanza:(D-G)
                       (do 1st riff)
Kung nag iyong problema
                  (do 2nd riff)
Ay ang iyong mukha
                (do 1st riff)
Wag na mag-alala
                 (do 2nd riff)
Pagkat nandito na

    Bm         A         G         A
|------7--|------5--|------3--|------5--|
|----7----|----5----|----3----|----5----|
|--7------|--6------|--4------|--6------|
|---------|---------|---------|---------|
|---------|---------|---------|---------|
|---------|---------|---------|---------|

refrain:(Bm-A-G-A)

And sagot sa lahat ng problema mo sa mga babae
Ang sagot sa lahat ng pagkakabigo ng mga lalake

chorus riff

|----10--9---7-------|
|----------------10--|
|--7---7---7---7-----|
|--------------------|
|--------------------|
|--------------------|

chorus:(do stanza chords)
                   (do chorus riff)
Nandito na ang papa
             (do chorus riff)
Papa cologne
                   (do chorus riff)
Nandito na ang papa
            (do chorus riff)
Papa cologne

(repeat stanza)
(repeat refrain)
(repeat chorus)

Solo:

/-slide
h-hammer

|----------------------------------------------------------------|
|-----9/10-10-10-10/12-10-----------9/10-10-10-10/12-10----------|
|-------------------------7/9-9/11----------------------7/9-9\7--|
|----------------------------------------------------------------|
|----------------------------------------------------------------|
|----------------------------------------------------------------|
[ Tab from: http://www.guitaretab.com/p/parokya-ni-edgar/62727.html ]
|--------------------------------------------------/15--14-------|
|-----9/10-10-10-10/12-10-----------------12/15-14---------15----|
|-------------------------7/9-9/11-/12-11------------------------|
|----------------------------------------------------------------|
|----------------------------------------------------------------|
|----------------------------------------------------------------|

|--------17-15-14-12-------------------------------------------------------|
|-----15-------------15-14-15-14-12----------------------------------------|
|--16------------------------------14-12-11-11/12---12-12---14-12--12-11---|
|--------------------------------------------------------------------------|
|--------------------------------------------------------------------------|
|--------------------------------------------------------------------------|

|----------------------15----------12------------------------|
|----------------12/15----15---8/12----12-10-8-7-------------|
|--------12--11-------------------------------------7--9/11--|
|--10/12-----------------------------------------9-----------|
|------------------------------------------------------------|
|------------------------------------------------------------|

my name is peter north..............

|--10---5/10-5--5h7-5---15-14-12-----------------------------|
|--------------------------------15----14--------------------|
|-----------------------------------------14-12-11-----------|
|--------------------------------------------------14-12-12--|
|------------------------------------------------------------|
|------------------------------------------------------------|

(repeat stanza)
(repeat refrain)
(repeat chorus 2x)
|------------------------------------------------------------|
gusto ko lang kamustahin bandmates ko
(Handpick name of the bands)
sila:
Jeff(drumer)
Jayson(Lead)
Juluis(Bass)
Bibe(Vocals)
John2x(Second vocals w/ guitar)
Jasper[ako](Rhythm)

Sana naman matanggap ng tong tab ko yung iba kong tab rejected!
Related for Papa Cologne tab
Advertisement will be closed in 10 seconds