Song name
# A B C D E F G H I J K L M N O P Q R S T U V W X Y Z

Parokya Ni Edgar - Tsaka Na Lang tab

Title:     Tsaka na Lang
Band:      Parokya ni Edgar
Album:     Bigotilyo
Tabbed by: -kenpuge-

sabayan nyu na lng ang music pra sa timing..
here it goes..

Legend:
GTR I  - lead guitar
GTR II - rythmic guitar
  
solo: (distorted)

1st part: alternate
GTR II
e|------------------------------------|
B|------------------------------------|
G|------------------------------------|
D|---7-7-6-7-6------------------------|
A|-------------7----------------------|
E|------------------------------------|

GTR I
e|------------------------------------|
B|---10-10-9-10-9---------------------|
G|------------------------------------|
D|------------------------------------|
A|------------------------------------|
E|------------------------------------|

GTR II
e|------------------------------------|
B|------------------------------------|
G|------------------------------------|
D|---7-7-6-7-6------------------------|
A|-------------7----------------------|
E|------------------------------------|

GTR I
e|------------------------------------|
B|---10-10-9-10-9---------------------|
G|------------------------------------|
D|------------------------------------|
A|------------------------------------|
E|------------------------------------|

GTR II
e|------------------------------------|
B|------------------------------------|
G|------------------------------------|
D|---7-7-6-7-6------------------------|
A|-------------7----------------------|
E|------------------------------------|

GTR I
e|----------------12------------------|
B|---10-10-9-10-9---------------------|
G|------------------------------------|
D|------------------------------------|
A|------------------------------------|
E|------------------------------------|

GTR II
e|------------------------------------|
B|------------------------------------|
G|------------------------------------|
D|---7-7-6-7-6------------------------|
A|-------------7----------------------|
E|------------------------------------|

GTR I
e|---12-12-10-10-9--------------------|
B|-----------------10-----------------|
G|------------------------------------|
D|------------------------------------|
A|------------------------------------|
E|------------------------------------|

2nd part: both guitars(together)

GTR II               GTR I
e|------------------|----------------12---|
B|------------------|---10-10-9-10-9------|
G|------------------|---------------------|
D|---7-7-6-7-6------|---------------------|
A|-------------7----|---------------------|
E|------------------|---------------------|

GTR II               GTR I
e|------------------|---------------------|
B|------------------|---10-10-9-10-9------|
G|-------------9----|----------------9----|
D|---7-7-6-7-6------|---------------------|
A|------------------|---------------------|
E|------------------|---------------------|

GTR II               GTR I
e|------------------|----------------12---|
B|------------------|---10-10-9-10-9------|
G|------------------|---------------------|
D|---7-7-6-7-6------|---------------------|
A|-------------7----|---------------------|
E|------------------|---------------------|

GTR II               GTR I
e|------------------|---------------------|
B|------------------|---10-10-9-10-9------|
G|---9-9-7-7-6------|----------------9----|
D|-------------7----|---------------------|
A|------------------|---------------------|
E|------------------|---------------------|

GTR II               GTR I
e|------------------|---12-12-10-10-9-----|
B|------------------|-----------------10--|
G|------------------|---------------------|
D|---7-7-6-7-6------|---------------------|
A|-------------7----|---------------------|
E|------------------|---------------------|

GTR II               GTR I
e|------------------|---------------------|
B|------------------|---10-10-9-10-9------|
G|-------------9----|----------------9----|
D|---7-7-6-7-6------|---------------------|
A|------------------|---------------------|
E|------------------|---------------------|

GTR II                               GTR I
e|-------------------------------|----------------10--10-10-10-10-9---12--|
B|-------------------------------|---10-10-9-10-9-------------------------|
G|-------------7--7-7-7-7-6---9--|----------------------------------------|
D|---7-7-6-7-6-------------------|----------------------------------------|
A|-------------------------------|----------------------------------------|
E|-------------------------------|----------------------------------------|

that's all!..
pra po yan ky Belladona C. Guartel of CRSHS..
hehe.. hi beL.. mwaah!..

tsaka sa PuGe Band:
adrix -vocals
kc    -rythm/vocals
louie -bass                                    
rani  -drums                                      
and..
yours truly..
ken   -manager(^_^)

for comments,suggestions,death threats,bombthreats, and love letters:
e-mail me at: kenpuge07@yahoo.com or
txt me      : 09206177062

mabuhay ang mga bandang pinoy!.. wohoo!
luv u beL!(^-^)

Tap to rate this tab
# A B C D E F G H I J K L M N O P Q R S T U V W X Y Z