Song name
# A B C D E F G H I J K L M N O P Q R S T U V W X Y Z

Pascow - Lauf Forrest Lauf tab

PASCOW  Lauf Forrest, Lauf!

made by Brei

Standard tuning EADGBe


INTRO:
Sound: Not too much gain, and the volume-pot on the guitar is on half

   D5               Bb5              C5               A5
|1|--------------------------------------------------------------------|
|2|--------------------------------------------------------------------|
|3|7-7-7-7-7-7-7-7--3-3-3-3-3-3-3-3--5-5-5-5-5-5-5-5-------------------|
|4|7-7-7-7-7-7-7-7--3-3-3-3-3-3-3-3--5-5-5-5-5-5-5-5--7-7-7-7-7-7-7-7--| x2
|5|5-5-5-5-5-5-5-5--1-1-1-1-1-1-1-1--3-3-3-3-3-3-3-3--7-7-7-7-7-7-7-7--|
|6|---------------------------------------------------5-5-5-5-5-5-5-5--|

PRE-VERSE & CHORUS:
Sound: Full volume on guitar, much distortion

|1|-------------------------------|
|2|---6665----6665----6665--------|
|3|77------33------55---------3~--|
|4|77------33------55------77-----|x2
|5|55------11------33------77-----|
|6|------------------------55-----|

Verse:
Sound: Like pre-verse

|1|--------------------------------------------------------------------|
|2|--------------------------------------------------------------------|
|3|7-7-7-7-7-7-7-7--3-3-3-3-3-3-3-3--5-5-5-5-5-5-5-5-------------------|
|4|7-7-7-7-7-7-7-7--3-3-3-3-3-3-3-3--5-5-5-5-5-5-5-5--7-7-7-7-7-7-7-7--| x4
|5|5-5-5-5-5-5-5-5--1-1-1-1-1-1-1-1--3-3-3-3-3-3-3-3--7-7-7-7-7-7-7-7--|
|6|---------------------------------------------------5-5-5-5-5-5-5-5--|

Ending:

|1|--------------------------------------------------------------------|
|2|-------------(6665)-----------(6665)-----------(6665)---------------|
|3|7-7-7-7-7-7-7-7--3-3-3-3-3-3-3-3--5-5-5-5-5-5-5-5-------------------|
|4|7-7-7-7-7-7-7-7--3-3-3-3-3-3-3-3--5-5-5-5-5-5-5-5--7-7-7-7-7-7-7-7--| x2
|5|5-5-5-5-5-5-5-5--1-1-1-1-1-1-1-1--3-3-3-3-3-3-3-3--7-7-7-7-7-7-7-7--|
|6|---------------------------------------------------5-5-5-5-5-5-5-5--|

|1|--------|
|2|---6665-|
|3|77------|
|4|77------|
|5|55------|
|6|--------|



()= 2nd Guitar 
~=Let ring out
Tap to rate this tab
 
# A B C D E F G H I J K L M N O P Q R S T U V W X Y Z