Guitaretab - guitar tabs
Song name
# A B C D E F G H I J K L M N O P Q R S T U V W X Y Z

Passion - Whisper tab

-------------------------------------------------------------------------------
			     Whisper - Passion
-------------------------------------------------------------------------------
Tabbed by:Jiresare
Email:jiresare@gmail.com

Tuning:EADGBe

Capo on First Fret

Verse
|---------------------------------------------------|
|---------------------------------------------------|
|------1-x-1-x-----2-x-2-x-----2-x-2-x-----1-x-1-x--|
|------4-x-4-x-----4-x-4-x-----4-x-4-x-----4-x-4-x--|   x2
|------2-x-2-x-----4-x-4-x-----3-x-3-x-----2-x-2-x--|
|---0--0-x-0-x--0--0-x-0-x--0--0-x-0-x--0--0-x-0-x--|

|-----------------------------------------------------------------------|
|-----------------------------------------------------------2-x--2--2---|
|------1--1---2-x-2-x-----4-x-4-x-----1-x-------1---2---4---1-x--1--1---|
|------4--4---2-x-2-x-----4-x-4-x-----2-x-------2---2---4---2-x--2--2---|
|------2--2---0-x-0-x-----2-x-2-x-----2-x-------2---0---0---0-x--0--0---|
|---0--0--0---2-x-2-x--0--0-x-0-x--0--0-x---0---0---2---4---------------|
[ Tab from: http://www.guitaretab.com/p/passion/159770.html ]
|-----------------2-x---4---x---4-x------------------|
|-----------4-x---4-x---4h5-x---5-x------------------|
|---2-x-2---2-x---2-x---4---x---4-x---1--x---2---4---|
|---2-x-2---4-x---4-x---4h6-x---4-x---2--x---2---4---|
|---0-x-0---0-x---3-x---4---x---6-x---2--x---0---2---|
|---2-x-2-----------------------------0--x---2---0---|

Chorus
|-----------------4---x--------------------|
|-----------------4h5-x--------------------|
|-----------------4---x---4-x---2-x---2-x--|
|-----------------4h6-x---4-x---2-x---2-x--|
|---------3---4---4---x---0-x---0-x---0-x--|
|---2h4-------------------4-x---2-x--2-x--|

|---4---x---------------------         ---------------|
|---4h5-x---------------------         ---------------|
|---4---x---4-x---2-x---2-x---         ---4-----------|
|---4h6-x---4-x---2-x---2-x---  x ??   ---4---   <----| End on
|---4---x---0-x---0-x---0-x---         ---2-----------|
|-----------4-x---2-x---2-x---         ---0-----------|


| /  slide up
| \  slide down
| h  hammer-on
| p  pull-off
| ~  vibrato
| +  harmonic
| x  Mute note
===============================================================================
Related for Whisper tab