Song name
# A B C D E F G H I J K L M N O P Q R S T U V W X Y Z

Pat Guadagno - Dont Let Us Get Sick tab

Help us improve GuitareTab! Take a short survey!
-------------------------------------------------------------------------------
			     Don't Let Us Get Sick (Intro) - Pat Guadagno
-------------------------------------------------------------------------------

Tuning: Standard

e|---------0-----------------7--0-----0--------0--0-----0-------------------|
B|------------0-----0--------------2--------0------------------------0------|
G|------1--------1-----------------------2----------------------1-----------|
D|--2---------------------2--------------------------1-----2----------------|
A|--------------------4-----------------------------------------------------|
E|--------------------------------------------------------------------------|


http://www.patguadagno.com/

Related for Dont Let Us Get Sick tab