Pat Kirtley - Rural Life tab

Rural Life - Pat Kirtley

tabbed by Alex "Zandy" Wight

DADGAD tuning

      S S S  S S S  S S  S S S S S S  S S  
D||-----0------0------0----0-----0------0-|
A||-------0------0-----------0-----0------|
G||---------11-----------------9----------|
D||--12------------12---11-----------11---|
A||---------------------------------------|
D||---------------------------------------|


  S S S S S S S S S S S S S S S S    S S S S S S S S S S S S S S S S  
----0-----0-----0---0-----0-----0-|----0-----0-----0---0-----0-----0-|
------0-----0---------0-----0-----|------0-----0---------0-----0-----|
--------7---------------6---------|--------4---------------2---------|
--9-----------9---7-----------7---|--5-----------5---4-----------4---|
----------------------------------|----------------------------------|
----------------------------------|----------------------------------|


  S S S S S S S S Q.     E     S S  S  S S S  S S  S S S S S S  S S  
------------------0---------|------------0------0----0-----0------0-|
--------2-------2-2---------|----0---------0-----------0-----0------|
----0-------0-----0---------|------11--------11----------9----------|
------5-------5---5------0--|---------12----------11-----------11---|
--0-------0-------0---------|---------------------------------------|
----------------------------|--0------------------------------------|


  S S S S S S S S S S S S S S S S    S S S S S S S S S S S S S S S S  
----0-----0-----0---0-----0-----0-|----0-----0-----0---0-----0-----0-|
------0-----0---------0-----0-----|------0-----0---------0-----0-----|
--------7---------------6---------|--------4---------------2---------|
--9-----------9---7-----------7---|--5-----------5---4-----------4---|
----------------------------------|----------------------------------|
----------------------------------|----------------------------------|


  S S S S S S E  H           E  S S S  S S S E  E  S  S S S  
-----------------0--------|-----0-0------0-0----0-------0-0-|
--------2--------2--------|-----0-0------0-0----0-------0-0-|
----0-------0----0--------|-----2-2------2-2----2-------2-2-|
------5-------5--5--------|------------------0-----0h-2-----|
--0-------0------0--------|--0------0h-2--------------------|
--------------------------|---------------------------------|


  S  S S S S  S S  S E  Q    E     E  S S S  S S S E  S S S  S E   
-------0-0--------------0-------|-----0-0------0-0----0-0------0--|
-------0-0--------------0----0--|-----0-0------0-0----0-0------0--|
-------2-2--------------2----2--|-----2-2------2-2----2-2------2--|
--2h-4-----2p-0------0-------0--|------------------0------2h-4----|
----------------2p-0------------|--0------0h-2--------------------|
--------------------------------|---------------------------------|


  E  E  S  S S S S S S S E  E     E  S S S  S S S E  S S S  S S S  
-----0---------0-----0------0--|-----0-0------0-0----0-0------0-0-|
-----0-----------0-----0----0--|-----0-0------0-0----0-0------0-0-|
-----0-------4-----4-----0--0--|-----2-2------2-2----2-2------2-2-|
--2-----4h-5-------------------|------------------0------0h-2-----|
-------------------------------|--0------0h-2---------------------|
-------------------------------|----------------------------------|


  S  S S S S  S S  S E  Q    E     E  S S S S S E  E  S S  S E   
-------0-0--------------0----L--|----------------------------2--|
-------0-0--------------0----L--|-------0----------0----4h-5----|
-------2-2--------------2----L--|--4--------2---0-----0---------|
--2h-4-----2p-0------0----------|--5------4-----2---------------|
----------------2p-0---------0--|--5--5---4-----2-------0-------|
--------------------------------|--5------4-----2---------------|


  E  S S  S E  S Q.     E     E  S S S  S S S E  S S S  S S S  
--0--------------0---------|-----0-0------0-0----0-0------0-0-|
------------0----0---------|-----0-0------0-0----0-0------0-0-|
-------0h-2------2------2--|-----2-2------2-2----2-2-2h-4-----|
-----0---------0--------0--|------------------0---------------|
---------------------------|--0------0h-2---------------------|
--0--------------0---------|----------------------------------|


  E  E  T  T  S S  S E  Q    E     E  S S S  S S S E  S S S  S E   
-----0--0---------------0----0--|-----0-0------0-0----0-0------0--|
-----0--0---------------0----0--|-----0-0------0-0----0-0------0--|
--2-----2---------------2----2--|-----2-2------2-2----2-2------2--|
--------4p-2p-0------0----------|------------------0------2h-4----|
----------------2p-0------------|--0------0h-2--------------------|
--------------------------------|---------------------------------|


  E  E  S  S S S S S S S E  E     E  S S S  S S S E  S S S  S S S  
-----0---------0-----0------0--|-----0-0------0-0----0-0------0-0-|
-----0-----------0-----0----0--|-----0-0------0-0----0-0------0-0-|
-----0-------4-----4-----0--0--|-----2-2------2-2----2-2-2h-4-----|
--2-----4h-5-------------------|------------------0---------------|
-------------------------------|--0------0h-2---------------------|
-------------------------------|----------------------------------|


  E  E  S  S S  S E  Q    E     E  S S S S S E  E  S S  S E   
-----0--0------------0----L--|----------------------------2--|
-----0--0------------0----L--|-------0----------0----4h-5----|
--2-----2------------2----L--|--4--------2---0-----0---------|
--------4p-0------0----------|--5------4-----2---------------|
-------------2p-0---------0--|--5--5---4-----2-------0-------|
-----------------------------|--5------4-----2---------------|


  E  S S  S E  S Q.     E     S  S S S S S S S S S S S S S S S  
--0--------------0---------|-----------------------------------|
------------0----0---------|---------0-----0-------2-----2-----|
-------0h-2------2---------|--0--------0-----0---2-----2-----2-|
-----0---------0--------0--|-------0-----0-----------2---------|
---------------------------|--0h-2-------------4-----------4---|
--0--------------0---------|-----------------------------------|


  S S S S S S S S S S S S S S S S    S S S S S S E  E  S S S  S S S  
----------------------------------|---------------------------------|
----0-----0-----0---0-----0-----0-|----0-----0---------0-0------0-0-|
------0-----0---------0-----0-----|------0-----0-------0-0------0-0-|
--------4---------------0---------|--------0---------------2h-4-----|
--5-----------0---------------0---|--------------2--0---------------|
------------------5---------------|--2------------------------------|


  E  S S S  S S S E  Q    E     S  S S S S S S S S S S S S S S S  
-----0-0------0-0----0-------|-----------------------------------|
-----0-0------0-0----0-------|---------0-----0-------2-----2-----|
-----2-2-------------2-------|--0--------0-----0---2-----2-----2-|
--0---------------0-------0--|-------0-----0-----------2---------|
---------0h-2-------------0--|--0h-2-------------4-----------4---|
-----------------------------|-----------------------------------|


  S S S S S S S S S S S S S S S S    E  Q    E   
----------------------------------|-----0-------|
----0-----0-----0---0-----0-----0-|-----0-------|
------0-----0---------0-----0-----|-----0----0--|
--------4---------------0-----0---|-------------|
--5-----------0-------------------|-------------|
------------------5---------------|--5----------|


  S  S S S S S S S E  S S S  S S S    E  S S S  S S S E  Q    E   
----------------------0-0------0-0-|-----0-0------0-0----0-------|
--0------0-----0------0-0------0-0-|-----0-0------0-0----0----0--|
-----------0-----0-----------------|-----2-2-------------2----0--|
-------0------------------2h-4-----|--0---------------0----------|
--0h-2-------2-----0---------------|---------0h-2----------------|
-----------------------------------|-----------------------------|


  E  S S S  E  S E  S S S  S S S    S   S  S S  S  S S S  S S S S S S S S  
-----0-0-------0---------------0-|-----------0-------0------0-----0-------|
-----0-0------------0-0------0---|--------10---10------0------0-----0---0-|
-----------------7------7h-9-----|--9S-11---------11-----11-----------0---|
--7------7S-9--------------------|------------------------------0---------|
---------------------------------|----------------------------------------|
---------------------------------|----------------------------------------|


  E  S S S  E  S E  E  S   S S S    E  E  S   S S  S S S S S  E  E   
-----0-0------------0----------0-|-----0--0----------0---0-------0--|
-----0-0-------0----0--------0---|-----0--0----------------------0--|
-----------------7-----9S-11-----|--9-----------0------0---0--------|
--7------7h-9--------------------|--------9h-11---11---------11-----|
---------------------------------|----------------------------------|
---------------------------------|----------------------------------|


  E  S S S  S S S E  S S S  S S S    S   S S S  S  S S  S  S S E  E  E   
----------------0------0--------0-|----------9-------0-------0----0-----|
-------0------0------0--------0---|--------9---12------12------------0--|
-----0------------7------7h-9-----|--9S-11--------11------11---9-----0--|
--7------7h-9---------------------|-------------------------------------|
----------------------------------|-------------------------------------|
----------------------------------|-------------------------------------|


   S   S S S E  E  S  S S S E  E     S  E  S E  Q    Q    E   
-----------0----0-----------------|--------0----0----0----0--|
-------------0--0---------0-------|-------------0----0----0--|
---0-----0--------------0------0--|--0----------0----0----0--|
-------------------------------0--|--0-------0---------------|
--12h-14-----------7h-9-----7--0--|--0h-2-----------------0--|
----------------------------------|--------------------------|


   S   S S S  S S S S S  S S S E  E     S  S S S E  Q    Q    E   
-----------0------0----------0-------|---------0----0----0----0--|
----------------0---0----------------|--------------0----0----0--|
---0-----0-----------------0------0--|--0----0------0----0----0--|
----------------------------------0--|--0--------0---------------|
--12h-14-----12-------7h-9-----7--0--|--0h-2------------------0--|
-------------------------------------|---------------------------|


  S  S S S S S S S S S S S S S S S    S S S S S S S S S S S S S S S S  
-----------------------------------|----------------------------------|
---------0-----0-------2-----2-----|----0-----0-----0---0-----0-----0-|
--0--------0-----0---2-----2-----2-|------0-----0---------0-----0-----|
-------0-----0-----------2---------|--------4---------------0---------|
--0h-2-------------4-----------4---|--5-----------0---------------0---|
-----------------------------------|------------------5---------------|


  S S S S S S E  E  S S S  S S S    E  S S S  S S S E  Q    E   
---------------------------------|-----0-0------0-0----0----0--|
----0-----0---------0-0------0-0-|-----0-0------0-0----0----0--|
------0-----0-------0-0------0-0-|-----2-2-------------2----2--|
--------0---------------2h-4-----|--0---------------0----------|
--------------2--0---------------|---------0h-2----------------|
--2------------------------------|-----------------------------|


  S  S S S S S S S S S S S S S S S    S S S S S S S S S S S S S S S S  
-----------------------------------|----------------------------------|
---------0-----0-----0-----0-----0-|----0-------2---0---0-----0-----0-|
--0--------0-----0-----0-----0-----|------0---2-----------0-----0-----|
-------0-----0-----------2-----2---|--------2---------------4---------|
--0h-2-------------3---------------|--4-----------4---5-----------0---|
-----------------------------------|----------------------------------|


  E  Q    E     S  S S S S S S S E  S S S  S S S  
-----0-------|----------------------0-0------0-0-|
-----0-------|--0------0-----0------0-0------0-0-|
-----0-------|-----------0-----0-----------------|
----------0--|-------0------------------2h-4-----|
-------------|--0h-2-------2-----0---------------|
--2----------|-----------------------------------|


  E  S S S  S E  E  Q    E     S  S S S S S S  S S S S  S  S S E   
-----0-0------0-----0----0--|--5p-4---0---0-----------------------|
-----0-0------0-----0----0--|-------7---4---0h-2-0----------------|
-----2-2------2-----2-------|----------------------0--------------|
--0--------------0----------|------------------------4p-2p-0-0----|
---------0h-2---------------|----------------------------------0--|
----------------------------|--0----------------------------------|


                       NH                                          
  E.  S S S E  Q       Q       S  S S S S S S  S S S S  S  S S E   
---------------0----<>12----|--5p-4---0---0-----------------------|
---------------0----<>12----|-------7---4---0h-2-0----------------|
--4---4--------2-------x----|----------------------0--------------|
--5---5-x-x----0----<>12----|------------------------4p-2p-0-0----|
--5---5-x-x-0--0----<>12----|----------------------------------0--|
--5---5-x-x-0--0----<>12----|--0----------------------------------|


  E.  S E  Q    E  E  E     S  S S S S S S  S S S S  S  S S E   
-------------------0-----|--5p-4---0---0-----------------------|
-------------------0-----|-------7---4---0h-2-0----------------|
--4---4----6-------6-----|----------------------0--------------|
--5---5----7-------7--7--|------------------------4p-2p-0-0----|
--5---5-x--7----7--7--7--|----------------------------------0--|
--5---5-x--7----7--7--7--|--0----------------------------------|


  E.  S S S E  Q    E  E       E  S S S S S E  S S S E   S S  
---------------0----0-----||---------------------------------|
---------------0----0-----||--------0---0------0-----------0-|
--4---4-4-x----2----2-----||*--0------------4--------6~--0---|
--5---5-5-x----0----0-----||*--0--0-----0---5--------7-------|
--5---5-5-x----0----0-----||----------------5------7---------|
--5---5-5-x-0--0----0--0--||---2------4-----5----7---7-------|


  E  S S S S S S S E  S E  E       E  S S S S S E  S S S Q      
-----0-----0---0---0--0----0---||------------------------------|
-----0-----0---0---0--0----0---||-------0---0------0-----------|
------------------------------*||--0------------4--------6~----|
-----4-----4-------4-------4--*||--0--0-----0---5--------7-----|
--2----2-------2------2--------||---------------5------7-------|
---------4--------------4------||--2------4-----5----7---7-----|


  |--3--| |--3--| |--3--|                                      
  S  S  S S  S  S S  S  S E  Q.     E     Q.     E  Q.     E   
---------------------------------------|--0---------0---------|
---------------------------------------|--0---------0---------|
---------------------------------------|--2---------4---------|
--7p-4h-5------------------------------|--4---------5---------|
----------7p-4h-5----------------------|----------------------|
------------------7p-4h-5-2--0------0--|--L------0--L------0--|


  S E   S E   T   E.  T E   E  E     E  S S S S S S E  S S S S E   
--------------0---L---L-L---L--L--|--0----0-----0-----------------|
--------------0---L---L-L---L--0--|--0------0-----0------5-----7--|
--7-----9-----9S-11---L-L---L-----|-----4-----4--------6-----6----|
--9----11----11S-12---L-L--12-----|------------------------7------|
----------------------------------|--7--------------0-------------|
--L-L-----L-------------0---------|-------------------------------|


            NH  NH   NH                                
  E  E  S   S   E    Q.     E     Q.     E  Q.     E   
--0----------------<>7------L--|--0---------0---------|
-------------------<>7------L--|--0---------0---------|
--------------<>7-----------L--|--2---------4---------|
-----0--0-----<>7-----------0--|--4---------5---------|
----------<>7------------------|----------------------|
--0----------------------------|--L------0--L------0--|


  S E   S E   T   E.  T E   E  E     E  S S S S S S S S S S S S S S  
--------------0---L---L-L---L--L--|--0----0-----0-----0-----0-----0-|
--------------0---L---L-L---L--0--|--0------0-----0-----0-----------|
--7-----9-----9S-11---L-L---L-----|--0--------------------------0---|
--9----11----11S-12---L-L--12-----|-----9-----9-----------9---9-----|
----------------------------------|--7--------------7---------------|
--L-L-----L-------------0---------|---------------------------------|


  S S S S S S S S  Q.     E     E  S S S  S S S E  E  S  S S S  
----------7-----7p-0---------|-----0-0------0-0----0-------0-0-|
----0-------0-------------0--|-----0-0------0-0----0-------0-0-|
------0------------0------0--|-----2-2------2-2----2-------2-2-|
--------9-----------------7--|------------------0-----0h-2-----|
--0-----------0--------------|--0------0h-2--------------------|
-----------------------------|---------------------------------|


  S  S S S S  S S  S E  Q    E     E  S S S  S S S E  S S S  S E   
-------0-0--------------0----0--|-----0-0------0-0----0-0------0--|
-------0-0--------------0----0--|-----0-0------0-0----0-0------0--|
-------2-2--------------2----2--|-----2-2------2-2----2-2------2--|
--2h-4-----2p-0------0----------|------------------0------2h-4----|
----------------2p-0------------|--0------0h-2--------------------|
--------------------------------|---------------------------------|


  E  E  S  S S S S S S S E  E     E  S S S  S S S E  S S S  S S S  
-----0---------0-----0------0--|-----0-0------0-0----0-0------0-0-|
-----0-----------0-----0----0--|-----0-0------0-0----0-0------0-0-|
-----0-------4-----4-----0--0--|-----2-2------2-2----2-2-2h-4-----|
--2-----4h-5-------------------|------------------0---------------|
-------------------------------|--0------0h-2---------------------|
-------------------------------|----------------------------------|


  E  E  S  S S  S E  Q    E     E  S S S S S E  E  S S  S S S  
-----0--0------------0----L--|----------------------------0---|
-----0--0------------0----L--|-------0----------0----2h-4---0-|
--2-----2------------2----2--|--4--------2---0-----0----------|
--------4p-0------0-------0--|--5------4-----2----------------|
-------------2p-0---------0--|--5--5---4-----2-------0--------|
-----------------------------|--5------4-----2----------------|


  E  S S S S S E  E  S S  S S S    E  S S S S S E  E  S S  S E   
-----0-----0----------------0---|-----0-----0----------------2--|
-------0----------0----2h-4---0-|-------0----------0----4h-5----|
-----------2---0-----0----------|-----------2---0-----0---------|
---------------2----------------|---------------2---------------|
--5------------2-------0--------|--5------------2-------0-------|
--5------4-----2----------------|--5------4-----2---------------|


                 ritard...                                  
                                    ^                       
  E  S S T  T  S E         Q.       E     W                 
--0------4p-2p-0-----------0------<>7--|--L----------------|
-----------------2----------------<>7--|--L----------------|
----------------------------------<>7--|--L----------------|
-------0--------------------------<>7--|--L----------------|
-----0----------------------------<>7--|--L----------------|
--0---------------------------------0--|--L----------------|


  W                  
--L----------------||
--L----------------||
--L----------------||
--L----------------||
--L----------------||
--L----------------||




Duration Legend
---------------
W - whole
H - half
Q - quarter
E - 8th
S - 16th
T - 32nd
X - 64th
. - note dotted
|-n-|  - n-tuplets


Tablature Legend
----------------
L - tied note
x - dead note
g - grace note
(n) - ghost note
> - accentuded note
NH - natural harmonic
AH - artificial harmonic
TH - tapped harmonic
SH - semi harmonic
PH - pitch harmonic
h - hammer on
p - pull off
b - bend
br - bendRelease
pb - preBend
pbr - preBendRelease
brb - bendReleaseBend
\n/ - tremolo bar dip
\n - tremolo bar dive
-/n - tremolo bar Release up
/n\ - tremolo bar inverted dip
/n - tremolo bar return
-\n - tremolo bar Release down
S - shift slide
s - legato slide
/ -  slide into from below or out of upwards
\ -  slide into from above or out of downwards
~ - vibrato
W - wide vibrato
tr - trill
TP - tremolo picking
T - tapping
S - slap
P - pop
< - fade in
^ - brush up
v - brush down
Tap to rate this tab
 
# A B C D E F G H I J K L M N O P Q R S T U V W X Y Z